Guitaretab - guitar tabs
Song name
# A B C D E F G H I J K L M N O P Q R S T U V W X Y Z

Live - Simple Creed tab

			     SIMPLE CREED - LIVE
----------------------------------------------------------------------------
Tabbed by: Asprology21
Email: benremmert@hotmail.com

Tuning: Eb, Ab, Db, Gb, Bb, eb

INTRO
eb|----------------------------------------------------------------------------|
Bb|---3--------3----------3-3--------------------------------------------------|
Gb|---2--------0--------0-2-2-------0------------------------------------------|
Db|---0--3-2-0-x--0-0-0-3-0-0-------0------------------------------------------|
Ab|---0--------3--0-3-0-------3-2-0-2--2-2-2-----------------------------------|
Eb|---------------------------------3--0-3-0-----------------------------------|

VERSE
eb|------------------------------------------------------------------------|
Bb|------------------------------------------------------------------------|
Gb|--5/7-7\-----------x-5-5-5-0---------------5/7-7\-------------xxxxxx----|
Db|--5/7-7\-----------x-5-5-5-0---------------5/7-7\-------------xxxxxx----|
Ab|--3/5-5\-----------x-3-3-0-0---------------3/5-5\-------------xxxxxx----|
Eb|------------------------------------------------------------------------|
        Born with your back to the gods that spit you out ontheriverbed
[ Tab from: http://www.guitaretab.com/l/live/22726.html ]
PRE VERSE
eb|------------------------------------------------------------------------|
Bb|------------------------------------------------------------------------|
Gb|------------------------------------------------------------------------|
Db|--3/5-5-x-xx------3/5-5-x-xx----3/5-5-x-----3/5-5--xxx------------------|
Ab|--3/5-5-x-xx------3/5-5-x-xx----3/5-5-x-----3/5-5--xxx------------------|
Eb|--1/3-3-x-xx------1/3-3-x-xx—---1/3-3-x—----1/3-3--xxx------------------|
	   I         wait for      you   to    take   my hand

CHORUS
Gtr1
     D         Am           C         G
eb|--0-0-x-x---------------------------------------------------------------|
Bb|--3-3-x-x---5--5--------------------------------------------------------|
Gb|--2-2-x-x---5--5-x-x-----5-5-x-x---4-4-4--------------------------------|
Db|--0-0-x-x---7--7-x-x-----5-5-x-x---5-5-5--------------------------------|
Ab|------------7--7-x-x-----3-3-x-x---5-5-5--------------------------------|
Eb|------------5--5-x-x---------------3-3-3--------------------------------|

Gtr 2
   D     Am	       C       G
e|-------------------------------------------------------------------------|
B|-------------------------------------------------------------------------|
G|-12-11-9-------------9---------------------------------------------------|
D|---------10----10-12---12-10-9-------------------------------------------|
A|-------------------------------------------------------------------------|
E|-------------------------------------------------------------------------|

Well, that’s about it. I know this is pretty accurate. I will post more Live songs, as I 
the time. Enjoy, and keep on playin’ Live!

Intro
Verse
Pre Chorus
Chorus
Verse
Pre Chorus
Chorus
Tricky Rap (Bass plays verse notes)
Pre Chorus x2
Chorus

| /  Slide up
| \  slide down
| h  hammer-on
| p  pull-off
| ~  vibrato
| +  harmonic
| x  Mute note
Related for Simple Creed tab