Guitaretab - guitar tabs
Song name
# A B C D E F G H I J K L M N O P Q R S T U V W X Y Z

Live - Like A Soldier tab

*NOTE*-I did not write this tab, credit goes to Live and Patrick Johnston

Track 04
Like A Soldier
Transcribed by: Patrick Johnston
Tuning: Standard Tuning

FIGURE 1
E-------------------------------------------:|
B-------------------------------------------:|
G--------------5------------7---------7-----:|
D-----7------5-----------7-------5h7----7---:|
A---7---7--3-----3--3/5--------5------------:|
E-5-----------------------------------------:|


I just come down from the mountain a happy man
turned on the television, should of chewed off my hand
i'm sick of all the false glory in god we trust
show me one dollar bill that hasn't passed through the cuss
[ Tab from: http://www.guitaretab.com/l/live/148698.html ]
E--------------------------------------------:|--5--|
B--------------------------------------------:|--5--|
G------7--------9---------10-----------12----:|--6--|
D----7---7----9---9----10----10-----12----12-:|--7--|
A--5--------7--------8-----------10----------:|--7--|
E--------------------------------------------:|--5--|

and if you break my will
i will come back again
to destroy everything you stood for
oh

E--5-5-5-5-5/-8--8--8--8--8-\-3-3-3-3-3\-x-1-x-1-x-1-2--:|
B--5-5-5-5-5/-8--8--8--8--8-\-3-3-3-3-3\-x-1-x-1-x-1-1--:|
G--6-6-6-6-6/-9--9--9--9--9-\-4-4-4-4-4\-x-2-x-2-x-2-2--:|
D--7-7-7-7-7/-10-10-10-10-10\-5-5-5-5-5\-x-3-x-3-x-3-3--:|
A--7-7-7-7-7/-10-10-10-10-10\-5-5-5-5-5\-x-3-x-3-x-3-3--:|
E--5-5-5-5-5/-8--8--8--8--8-\-3-3-3-3-3\-x-1-x-1-x-1-1--:|
Related for Like A Soldier tab