Guitaretab - guitar tabs
Song name
# A B C D E F G H I J K L M N O P Q R S T U V W X Y Z

Live - Walk The Line tab

Highlighted       Show chord diagrams
-------------------------------------------------------------------------------
			     Live - Walk The Line
-------------------------------------------------------------------------------
Tabbed by: Joe Aguirre
Email: lambdaphi874@yahoo.com

Tuning: Capo 1st (all chords relative to capo)

Intro: Em

Verse: Bm Em

The first b minor comes in on the word "close"

Bridge: Am Em

I just put the basic structure for the bridge and the main melody notes played.  It's an 
playing the 'solo' part but it sounds fine on an acoustic.
[ Tab from: http://www.guitaretab.com/l/live/143490.html ]
e|--0--3--2--0---------------------------------------------------------------------|
B|--1-----------3-----------0-1----------------------------------------------------|
G|--2--------------0---------------------------------------------------------------|
D|--2--------------2---------------------------------------------------------------|
A|--0--------------2---------------------------------------------------------------|
E|-----------------0---------------------------------------------------------------|


| /  slide up
|   slide down
| h  hammer-on
| p  pull-off
| ~  vibrato
| +  harmonic
| x  Mute note
===============================================================================
Related for Walk The Line tab