Song name
# A B C D E F G H I J K L M N O P Q R S T U V W X Y Z

Living End - Mispent Youth tab

       PART 1
E|-------------------------------------------------------|
B|-------------------------------------------------------|
G|-------------------------------------------------------|
D|-------------------------------------------------------|
A|------7-5-1-0------------------------------------------|
E|-0-0----------5-3^-------------------------------------|

       PART 2  
E|-------------------------------------------------------|
B|-------------------------------------------------------|
G|-------------------------------------------------------|
D|-------------------------------------------------------|
A|---7-5-1-0---------------------------------------------|
E|-0---------5-3^----------------------------------------|



MISPENT YOUTH IS AN AWESOME SONG, HAV FUN! :)

REPEAT AS MANY TIMES AS NEEDED.
Tap to rate this tab
# A B C D E F G H I J K L M N O P Q R S T U V W X Y Z