Song name
# A B C D E F G H I J K L M N O P Q R S T U V W X Y Z

Living It Up - Copyright tab

intro
e-------------------------------------------------|--------
b-------------------------------------------------|--------
g-------------------------------------------------|--------
d--7779979767-------------------------------------|--------
a--7779-------------------------------------------|-97-----
e--5557-------------------------------------------|--------

after second time play the second bit

chorus
e----------------------------------------------------------
b----------------------------------------------------------
g-55555----------------------------------------------------
d-55555---66666--------------------------------------------
a-33333---66666--------------------------------------------
e---------44444--------------------------------------------

e----------------------------------------------------------
b----------------------------------------------------------
g----------------------------------------------------------
d-11-11-11-11-11--888886666666-----------------------------
a-11-11-11-11-11--888886666666-----------------------------
e--9--9--9--9--9--666664444444-----------------------------

e----------------------------------------------------------
b----------------------------------------------------------
g----------------------------------------------------------
d-555552222277777------------------------------------------
a-555552222277777------------------------------------------
e-333330000055555------------------------------------------
Tap to rate this tab
# A B C D E F G H I J K L M N O P Q R S T U V W X Y Z