Song name
# A B C D E F G H I J K L M N O P Q R S T U V W X Y Z

Living Sacrifice - Sellout tab

Help us improve GuitareTab! Take a short survey!
#----------------------------------PLEASE NOTE---------------------------------#
#This file is the author's own work and represents their interpretation of the #
#song. You may only use this file for private study, scholarship, or research. #
#------------------------------------------------------------------------------#

SELLOUT
As recorded by Living Sacrifice
(From the 1998 Album REBORN)


Transcribed by BassP86

 Words and Music by Living Sacrifice

 

Gtr I (C# F# B E G# C#) - 'Jason Truby - Lead'
Gtr II (C# F# B E G# C#) - 'Jason Truby - Lead'
Gtr III (C# F# B E G# C#) - 'Bruce Fizthugh - Rhythm'


   Intro
    Q=94
    N.(E5)(G5)  (F#5) (G5)  (Bb5)     (E5)  (G5)  (F#5) (G5)  (Bb5)
   4/4
    Gtr I
    S S S S S S S S S S S S S S S S   S S S S S S S S S S S S S S S S  4x
||----------------------------------|----------------------------------||
||o---------------------------------|---------------------------------o||
||------3-----3-----3-----3-----3---|-----3-----3-----3-----3-----3----||
||----------5-----4-----5-----4-----|---------5-----4-----5-----4------||
||o---2---------------------1-----1-|---2---------------------1-----1-o||
||--0-----3-----2-----3-------------|-0-----3-----2-----3--------------||


    N.C(E5)(G5)    (F#5)  (G5)    (Bb5)
    Gtr I
    S  S S S  S  S S  S S S  S  S S S S S
||----------------------------------------|
||o---------------------------------------|
||-------3-------3------3-------3-----3---|
||------------5-------4------5------4-----|
||o----2--------------------------1-----1-|
||--0------3-------2------3---------------|
|
|   Gtr II
|   E.     S +E    E.     S +E    E   E
||----------------------------------------|
||o---------------------------------------|
||----------------------------------------|
||----------------------------------------|
||o-------------------------------1---1---|
||--0------3-(3)---2------3-(3)-----------|


  (E5)   (G5)    (F#5)  (G5)    (Bb5)
  S  S S S  S  S S  S S S  S  S S S S S
|-----------------------------------------||
|----------------------------------------o||
|------3-------3------3-------3-----3-----||
|-----------5-------4------5------4-------||
|----2--------------------------1-----1--o||
|-0------3-------2------3-----------------||
|
| E.     S +E    E.     S +E    S S E
|-----------------------------------------||
|----------------------------------------o||
|-----------------------------------------||
|-----------------------------------------||
|-------------------------------1-1-1----o||
|-0------3-(3)---2------3-(3)-------------||


  E5 G5    F#5G5    Bb5   E5 G5    F#5G5    Bb5
  Gtrs II, III
  E. S +E  E. S +E  E E   E. S +E  E. S +E  S S E
|-----------------------|-------------------------|
|-----------------------|-------------------------|
|-----------------------|-------------------------|
|-------------------3-3-|-------------------3-3-3-|
|-2--5-(5)-4--5-(5)-1-1-|-2--5-(5)-4--5-(5)-1-1-1-|
|-0--3-(3)-2--3-(3)-----|-0--3-(3)-2--3-(3)-------|


  E5 G5    F#5G5    Bb5   E5 G5    F#5G5    Bb5
                                      PM----------|
  E. S +E  E. S +E  E E   E. S +E  E. S S S S S S S
|-----------------------|---------------------------|
|-----------------------|---------------------------|
|-----------------------|---------------------------|
|-------------------3-3-|-------------------3-3-3-3-|
|-2--5-(5)-4--5-(5)-1-1-|-2--5-(5)-4--5-5-5-1-1-1-1-|
|-0--3-(3)-2--3-(3)-----|-0--3-(3)-2--3-3-3---------|


  E5 G5    F#5G5    Bb5   E5 G5    F#5G5    Bb5
  Gtr II
  E. S +E  E. S +E  E E   E. S +E  E. S +E  S S S S
|-----------------------|---------------------------|
|-----------------------|---------------------------|
|-----------------------|---------------------------|
|-2--5-(5)-4--5-(5)-----|-2--5-(5)-4--5-(5)---------|
|-------------------6-6-|-------------------6-x-x-x-|
|-----------------------|---------------------------|
|
| Gtr III
| E. S +E  E. S +E  E E   E. S +E  E. S +E  S S E
|-----------------------|---------------------------|
|-----------------------|---------------------------|
|-----------------------|---------------------------|
|-------------------3-3-|-------------------3-3-3---|
|-2--5-(5)-4--5-(5)-1-1-|-2--5-(5)-4--5-(5)-1-1-1---|
|-0--3-(3)-2--3-(3)-----|-0--3-(3)-2--3-(3)---------|


  E5 G5    F#5G5    Bb5   E5 G5    F#5G5    Bb5
  E. S +E  E. S +E  E E   E. S +E  E. S +E  E   E
|-----------------------|--------------------------||
|-----------------------|--------------------------||
|-----------------------|--------------------------||
|-2--5-(5)-4--5-(5)-----|-2--5-(5)-4--5-(5)--------||
|-------------------6-6-|-------------------6---6--||
|-----------------------|--------------------------||
|
| E. S +E  E. S +E  E E   E. S +E  E. S +E  S S E
|-----------------------|--------------------------||
|-----------------------|--------------------------||
|-----------------------|--------------------------||
|-------------------3-3-|-------------------3-3-3--||
|-2--5-(5)-4--5-(5)-1-1-|-2--5-(5)-4--5-(5)-1-1-1--||
|-0--3-(3)-2--3-(3)-----|-0--3-(3)-2--3-(3)--------||


   Pre-Verse
    E5    G5    F#5   G5    Bb5       E5    G5    F#5   G5    Bb5
    Gtrs II, III
    PM-------------------------------------------------------------------
    S S S S S S S S S S S S S S S S   S S S S S S S S S S S S S S S S
||----------------------------------|----------------------------------||
||o---------------------------------|---------------------------------o||
||----------------------------------|----------------------------------||
||--------------------------3-3-3-3-|-------------------------3-3-3-3--||
||o-2-2-2-5-5-5-4-4-4-5-5-5-1-1-1-1-|-2-2-2-5-5-5-4-4-4-5-5-5-1-1-1-1-o||
||--0-0-0-3-3-3-2-2-2-3-3-3---------|-0-0-0-3-3-3-2-2-2-3-3-3----------||
|
|   W                                 W
||----------------------------------|----------------------------------||
||o---------------------------------|---------------------------------o||
||----------------------------------|----------------------------------||
||----------------------------------|----------------------------------||
||o---------------------------------|---------------------------------o||
||----------------------------------|----------------------------------||


              Fb5
  Gtr II
 -----------|     PM--------|     PM--|
  T T S T T S S S T T S T T S S S T T S S S
|----------------------------------------------||
|----------------------------------------------||
|----------------------------------------------||
|-------------9-9-------------9-9-------9-9----||
|-------------8-8-------------8-8-------8-8----||
|-0-0-0-0-0-0-----0-0-0-0-0-0-----0-0-0--------||
|
| Gtr III
| PM--------|
| T T S T T S S S Q           S S E     S S
|----------------------------------------------||
|----------------------------------------------||
|----------------------------------------------||
|-------------9-9-------------9-9-------9-9----||
|-------------8-8-------------8-8-------8-8----||
|-0-0-0-0-0-0----------------------------------||


   Verse
                Fb5
    Gtrs II, III
    PM--------|     PM--------|     PM--|
    T T S T T S S S T T S T T S S S T T S S S
||--------------------------------------------|
||o-------------------------------------------|
||--------------------------------------------|
||--------------9-9-------------9-9-------9-9-|
||o-------------8-8-------------8-8-------8-8-|
||--0-0-0-0-0-0-----0-0-0-0-0-0-----0-0-0-----|


  PM--------|     PM--------|     PM--|
  T T S T T S S S T T S T T S S S T T S S S
|-------------------------------------------|
|-------------------------------------------|
|-------------------------------------------|
|-------------9-9-------------9-9-------9-9-|
|-------------8-8-------------8-8-------8-8-|
|-0-0-0-0-0-0-----0-0-0-0-0-0-----0-0-0-----|


              F5
  PM--------|       PM--------|       PM--|
  T T S T T S  S  S T T S T T S  S  S T T S  S  S
|-------------------------------------------------|
|-------------------------------------------------|
|-------------------------------------------------|
|-------------10-10-------------10-10-------10-10-|
|--------------8--8--------------8--8--------8--8-|
|-0-0-0-0-0-0-------0-0-0-0-0-0-------0-0-0-------|


  PM--------|       PM--------|       PM--|
  T T S T T S  S  S T T S T T S  S  S T T S  S  S
|---------------------------------------------------||
|--------------------------------------------------o||
|---------------------------------------------------||
|-------------10-10-------------10-10-------10-10---||
|--------------8--8--------------8--8--------8--8--o||
|-0-0-0-0-0-0-------0-0-0-0-0-0-------0-0-0---------||


              Fb5
  PM--------|                     PM--------|     PM--------|     PM--|
  T T S T T S S S Q  S S E S S    T T S T T S S S T T S T T S S S T T S S S
|------------------------------||-------------------------------------------|
|------------------------------||-------------------------------------------|
|------------------------------||-------------------------------------------|
|-------------9-9----9-9---9-9-||-------------9-9-------------9-9-------9-9-|
|-------------8-8----8-8---8-8-||-------------8-8-------------8-8-------8-8-|
|-0-0-0-0-0-0------------------||-0-0-0-0-0-0-----0-0-0-0-0-0-----0-0-0-----|


  PM--------|     PM--------|     PM--|
  T T S T T S S S T T S T T S S S T T S S S
|-------------------------------------------|
|-------------------------------------------|
|-------------------------------------------|
|-------------9-9-------------9-9-------9-9-|
|-------------8-8-------------8-8-------8-8-|
|-0-0-0-0-0-0-----0-0-0-0-0-0-----0-0-0-----|


              F5
  PM--------|       PM--------|       PM--|
  T T S T T S  S  S T T S T T S  S  S T T S  S  S
|-------------------------------------------------|
|-------------------------------------------------|
|-------------------------------------------------|
|-------------10-10-------------10-10-------10-10-|
|--------------8--8--------------8--8--------8--8-|
|-0-0-0-0-0-0-------0-0-0-0-0-0-------0-0-0-------|


  PM--------|       PM--------|       PM--|
  T T S T T S  S  S T T S T T S  S  S T T S  S  S
|--------------------------------------------------|
|--------------------------------------------------|
|--------------------------------------------------|
|-------------10-10-------------10-10-------10-10--|
|--------------8--8--------------8--8--------8--8--|
|-0-0-0-0-0-0-------0-0-0-0-0-0-------0-0-0--------|


              Fb5
  Gtr II
  S   S S   S  S  S  S    S  S    S  S  S  S    S  S  S
|-------------------------------------------------------|
|-------------12-12-12---12-12---12-12-12-12---12-12-12-|
|-------------------------------------------------------|
|-9---9-9---9-------------------------------------------|
|-------------------------------------------------------|
|-------------------------------------------------------|
|
| Gtr III
| PM--------|        PM----------|         PM--|
| T T S T T S  S  S  T T  S  T T  S  S  S  T T  S  S  S
|-------------------------------------------------------|
|-------------------------------------------------------|
|-------------------------------------------------------|
|--------------9--9------------------9--9----------9--9-|
|--------------8--8------------------8--8----------8--8-|
|-0-0-0-0-0-0--------0-0--0--0-0--0--------0-0--0-------|


   S    S  S    S  S  S  S    S  S    S  S  S  S    S  S  S
|------------------------------------------------------------|
|-12----------------------------12---12-------12---12--------|
|------11-11---11-11-11-11---11---------11-11---------11-11--|
|------------------------------------------------------------|
|------------------------------------------------------------|
|------------------------------------------------------------|
|
|  PM----------|         PM----------|         PM--|
|  T T  S  T T  S  S  S  T T  S  T T  S  S  S  T T  S  S  S
|------------------------------------------------------------|
|------------------------------------------------------------|
|------------------------------------------------------------|
|------------------9--9------------------9--9----------9--9--|
|------------------8--8------------------8--8----------8--8--|
|--0-0--0--0-0--0--------0-0--0--0-0--0--------0-0--0--------|


                  F5
   S    S  S    S  S  S  S    S  S    S  S  S  S    S  S  S
|-----------------------------------------------------------|
|-13---13---------13-13---------13---13-------13---13-------|
|---------12---12-------12---12---------12-12---------12-12-|
|-----------------------------------------------------------|
|-----------------------------------------------------------|
|-----------------------------------------------------------|
|
|  PM----------|         PM----------|         PM--|
|  T T  S  T T  S  S  S  T T  S  T T  S  S  S  T T  S  S  S
|-----------------------------------------------------------|
|-----------------------------------------------------------|
|-----------------------------------------------------------|
|-----------------10-10-----------------10-10---------10-10-|
|------------------8--8------------------8--8----------8--8-|
|--0-0--0--0-0--0--------0-0--0--0-0--0--------0-0--0-------|


   S    S  S    S  S  S  S    S  S    S  S  S  S    S  S  S
|-11--------------11-11-11---11-11---11-11-11-11---11-11-11--||
|------11-11---11-----------------------11-11-11---11-11-11--||
|------------------------------------------------------------||
|------------------------------------------------------------||
|------------------------------------------------------------||
|------------------------------------------------------------||
|
|  PM----------|         PM----------|         PM--|
|  T T  S  T T  S  S  S  T T  S  T T  S  S  S  T T  S  S  S
|------------------------------------------------------------||
|------------------------------------------------------------||
|------------------------------------------------------------||
|-----------------10-10-----------------10-10---------10-10--||
|------------------8--8------------------8--8----------8--8--||
|--0-0--0--0-0--0--------0-0--0--0-0--0--------0-0--0--------||


 Chorus
  E5 G5    F#5G5    Bb5   E5 G5    F#5G5    Bb5
  Gtrs II, III
  E. S +E  E. S +E  E E   E. S +E  E. S +E  S S E
|-----------------------|-------------------------|
|-----------------------|-------------------------|
|-----------------------|-------------------------|
|-------------------3-3-|-------------------3-3-3-|
|-2--5-(5)-4--5-(5)-1-1-|-2--5-(5)-4--5-(5)-1-1-1-|
|-0--3-(3)-2--3-(3)-----|-0--3-(3)-2--3-(3)-------|


  E5 G5    F#5G5    Bb5   E5 G5    F#5G5    Bb5
                                            PM----|
  E. S +E  E. S +E  E E   E. S +E  E. S +E  S S S S
|-----------------------|----------------------------|
|-----------------------|----------------------------|
|-----------------------|----------------------------|
|-------------------3-3-|-------------------3-3-3-3--|
|-2--5-(5)-4--5-(5)-1-1-|-2--5-(5)-4--5-(5)-1-1-1-1--|
|-0--3-(3)-2--3-(3)-----|-0--3-(3)-2--3-(3)----------|


  E5 G5    F#5G5    Bb5   E5 G5    F#5G5    Bb5
  E. S +E  E. S +E  E E   E. S +E  E. S +E  S S E
|-----------------------|-------------------------|
|-----------------------|-------------------------|
|-----------------------|-------------------------|
|-------------------3-3-|-------------------3-3-3-|
|-2--5-(5)-4--5-(5)-1-1-|-2--5-(5)-4--5-(5)-1-1-1-|
|-0--3-(3)-2--3-(3)-----|-0--3-(3)-2--3-(3)-------|


  E5 G5    F#5G5    Bb5   E5 G5    F#5G5    Bb5
  E. S +E  E. S +E  E E   E. S +E  E. S +E  S S E
|-----------------------|---------------------------||
|-----------------------|---------------------------||
|-----------------------|---------------------------||
|-------------------3-3-|-------------------3-3-3---||
|-2--5-(5)-4--5-(5)-1-1-|-2--5-(5)-4--5-(5)-1-1-1---||
|-0--3-(3)-2--3-(3)-----|-0--3-(3)-2--3-(3)---------||


   Breakdown
          Bb5         G5A5  BbA5  G5A5        Bb5   N.C.
    PM--|       PM--|     PM    PM      PM--|
    S S S S +S  S S S S S S S S S S S   S S S S +S  S S S S S S S S S S S
||------------------------------------|-------------------------------------||
||o-----------------------------------|------------------------------------o||
||------------------------------------|-------------------------------------||
||------------------------------------|-------------------------------------||
||o-------8-(8)-------5s7---8s7---5s7-|-------8-(8)------------------------o||
||--0-0-0-6-(6)-0-0-0-3s5-0-6s5-0-3s5-|-0-0-0-6-(6)-5p3p0-3h5-0-6p5-0-3h5---||


    E5                          Bb5  E5                          Bb5
    PM|   PM|   PM|   PM------|      PM|   PM|   PM|   PM------|
    S S S S S S S S S S S S S S E    S S S S S S S S S S S S S S E
||---------------------------------|----------------------------------||
||o--------------------------------|---------------------------------o||
||---------------------------------|----------------------------------||
||---------------------------------|----------------------------------||
||o-2-2---2-2---2-2---2-2-2-----8\-|-2-2---2-2---2-2---2-2-2-----8\--o||
||--0-0---0-0---0-0---0-0-0-3-0-6\-|-0-0---0-0---0-0---0-0-0-3-0-6\---||


   Bridge
    E5                          Bb5  E5                          Bb5
    PM|   PM|   PM|   PM------|      PM|   PM|   PM|   PM------|
    S S S S S S S S S S S S S S E    S S S S S S S S S S S S S S E
||---------------------------------|----------------------------------||
||o--------------------------------|---------------------------------o||
||---------------------------------|----------------------------------||
||---------------------------------|----------------------------------||
||o-2-2---2-2---2-2---2-2-2-----8\-|-2-2---2-2---2-2---2-2-2-----8\--o||
||--0-0---0-0---0-0---0-0-0-3-0-6\-|-0-0---0-0---0-0---0-0-0-3-0-6\---||


    E5                          Bb5  E5                          Bb5
    Gtr II
                              PM                               PM
    S S S S S S S S S S S S S S E    S S S S S S S S S S S S S S E
||---------------------------------|----------------------------------||
||o--------------------------------|---------------------------------o||
||---------------------------------|----------------------------------||
||--------------------5-5-5-5------|-------------------5-5-5-5--------||
||o-7-7---7-7---7-7-------------8--|-7-7---7-7---7-7-------------8---o||
||----------------------------0----|---------------------------0------||
|
|   Gtr III
|   PM|   PM|   PM|   PM------|      PM|   PM|   PM|   PM------|
|   S S S S S S S S S S S S S S E    S S S S S S S S S S S S S S E
||---------------------------------|----------------------------------||
||o--------------------------------|---------------------------------o||
||---------------------------------|----------------------------------||
||---------------------------------|----------------------------------||
||o-2-2---2-2---2-2---2-2-2-----8\-|-2-2---2-2---2-2---2-2-2-----8\--o||
||--0-0---0-0---0-0---0-0-0-3-0-6\-|-0-0---0-0---0-0---0-0-0-3-0-6\---||


  E5                                        Bb5
   S  S  S  S  S  S  S  S  S  S  S  S  S  S  S   S
|-12-12-12-12----------------12-------12-12--------|
|-------------11-11-11-11-11----11-11-------11--11-|
|--------------------------------------------------|
|--------------------------------------------------|
|--------------------------------------------------|
|--------------------------------------------------|
|
|  PM------------------------------------|
|  S  S  S  S  S  S  S  S  S  S  S  S  S  S  E
|--------------------------------------------------|
|--------------------------------------------------|
|--------------------------------------------------|
|--------------------------------------------------|
|--2--2-----2--2-----2--2-----2--2--2--------8\----|
|--0--0-----0--0-----0--0-----0--0--0--3--0--6\----|


  E5                           Bb5
   S S S S S S S S S S S S S S S  S
|-----------------------------------|
|-11p9-9-9-9-9-9-9-9-9-9-9-9-9-9--9-|
|-----------------------------------|
|-----------------------------------|
|-----------------------------------|
|-----------------------------------|
|
|  PM------------------------|
|  S S S S S S S S S S S S S S E
|-----------------------------------|
|-----------------------------------|
|-----------------------------------|
|-----------------------------------|
|--2-2---2-2---2-2---2-2-2-----8\---|
|--0-0---0-0---0-0---0-0-0-3-0-6\---|


  E5                                        Bb5
   S  S  S  S  S  S  S  S  S  S  S  S  S  S  S   S
|-12-12-12-12----------------12-------12-12--------|
|-------------11-11-11-11-11----11-11-------11--11-|
|--------------------------------------------------|
|--------------------------------------------------|
|--------------------------------------------------|
|--------------------------------------------------|
|
|  PM------------------------------------|
|  S  S  S  S  S  S  S  S  S  S  S  S  S  S  E
|--------------------------------------------------|
|--------------------------------------------------|
|--------------------------------------------------|
|--------------------------------------------------|
|--2--2-----2--2-----2--2-----2--2--2--------8\----|
|--0--0-----0--0-----0--0-----0--0--0--3--0--6\----|


  E5                             Bb5
   S S S S S  S S S  S S S S S S S  S
|------------12-----------------------|
|-11p9-9-9-9----9-9-11p9-9-9-9-9-9--9-|
|-------------------------------------|
|-------------------------------------|
|-------------------------------------|
|-------------------------------------|
|
|  PM--------------------------|
|  S S S S S  S S S  S S S S S S E
|-------------------------------------|
|-------------------------------------|
|-------------------------------------|
|-------------------------------------|
|--2-2---2-2----2-2----2-2-2-----8\---|
|--0-0---0-0----0-0----0-0-0-3-0-6\---|


          Bb5         G5A5  BbA5  G5A5        Bb5         G5A5  BbA5  G5A5
    PM--|       PM--|     PM    PM      PM--|       PM--|     PM    PM
    S S S S +S  S S S S S S S S S S S   S S S S +S  S S S S S S S S S S S
||------------------------------------|-------------------------------------||
||o-----------------------------------|------------------------------------o||
||------------------------------------|-------------------------------------||
||------------------------------------|-------------------------------------||
||o-------8-(8)-------5s7---8s7---5s7-|-------8-(8)-------5s7---8s7---5s7--o||
||--0-0-0-6-(6)-0-0-0-3s5-0-6s5-0-3s5-|-0-0-0-6-(6)-0-0-0-3s5-0-6s5-0-3s5---||


 Out-Chorus
  N.C.                    E5 G5    F#5G5    Bb5
  Gtr II                  Gtrs II, III
  E. S +E  E. S +E  E E   E. S +E  E. S +E  S S S S
|-----------------------|---------------------------|
|-----------------------|---------------------------|
|-----------------------|---------------------------|
|-----------------------|-------------------3-3-3-3-|
|-------------------1-1-|-2--5-(5)-4--5-(5)-1-1-1-1-|
|-0--3-(3)-2--3-(3)-----|-0--3-(3)-2--3-(3)---------|


  E5 G5    F#5G5    Bb5   E5 G5    F#5G5    Bb5
  E. S +E  E. S +E  E E   E. S +E  E. S +E  S S S S
|-----------------------|---------------------------|
|-----------------------|---------------------------|
|-----------------------|---------------------------|
|-------------------3-3-|-------------------3-3-3-3-|
|-2--5-(5)-4--5-(5)-1-1-|-2--5-(5)-4--5-(5)-1-1-1-1-|
|-0--3-(3)-2--3-(3)-----|-0--3-(3)-2--3-(3)---------|


  E5 G5    F#5G5    Bb5   E5 G5    F#5G5    Bb5
  Gtr II
  E. S +E  E. S +E  E E   E. S +E  E. S +E  S S E
|-----------------------|-------------------------|
|-----------------------|-------------------------|
|-----------------------|-------------------------|
|-------------------3-3-|-------------------3-3-3-|
|-2--5-(5)-4--5-(5)-1-1-|-2--5-(5)-4--5-(5)-1-1-1-|
|-0--3-(3)-2--3-(3)-----|-0--3-(3)-2--3-(3)-------|
|
| Gtr III
| E. S +E  E. S +E  E E   E. S +E  E. S +E  S S E
|-----------------------|-------------------------|
|-----------------------|-------------------------|
|-----------------------|-------------------------|
|-------------------3-3-|-------------------3-3-3-|
|-2--5-(5)-4--5-(5)-1-1-|-2--5-(5)-4--5-(5)-1-1-1-|
|-0--3-(3)-2--3-(3)-----|-0--3-(3)-2--3-(3)-------|


  E5 G5    F#5G5    Bb5   E5 G5    F#5G5    Bb5
  E. S +E  E. S +E  E E   E. S +E  E. S +E  E E
|-----------------------|-----------------------|
|-----------------------|-----------------------|
|-------------------3-3-|-------------------3-3-|
|-2--5-(5)-4--5-(5)-----|-2--5-(5)-4--5-(5)-----|
|-----------------------|-----------------------|
|-----------------------|-----------------------|
|
| E. S +E  E. S +E  E E   E. S +E  E. S +E  E E
|-----------------------|-----------------------|
|-----------------------|-----------------------|
|-----------------------|-----------------------|
|-------------------3-3-|-------------------3-3-|
|-2--5-(5)-4--5-(5)-1-1-|-2--5-(5)-4--5-(5)-1-1-|
|-0--3-(3)-2--3-(3)-----|-0--3-(3)-2--3-(3)-----|


  E5 G5    F#5G5    Bb5   E5 G5    F#5G5    Bb5
  E. S +E  E. S +E  E E   E. S +E  E. S +E  E E
|-----------------------|-----------------------|
|-----------------------|-----------------------|
|-------------------3-3-|-------------------3-3-|
|-2--5-(5)-4--5-(5)-----|-2--5-(5)-4--5-(5)-----|
|-----------------------|-----------------------|
|-----------------------|-----------------------|
|
| E. S +E  E. S +E  E E   E. S +E  E. S +E  E E
|-----------------------|-----------------------|
|-----------------------|-----------------------|
|-----------------------|-----------------------|
|-------------------3-3-|-------------------3-3-|
|-2--5-(5)-4--5-(5)-1-1-|-2--5-(5)-4--5-(5)-1-1-|
|-0--3-(3)-2--3-(3)-----|-0--3-(3)-2--3-(3)-----|


  E5 G5    F#5G5    Bb5   E5 G5    F#5G5    Bb5
  E. S +E  E. S +E  E E   E. S +E  E. S +E  E E
|-----------------------|-----------------------*|
|-----------------------|-----------------------*|
|-------------------3-3-|-------------------3-3-*|
|-2--5-(5)-4--5-(5)-----|-2--5-(5)-4--5-(5)-----*|
|-----------------------|-----------------------*|
|-----------------------|-----------------------*|
|
| E. S +E  E. S +E  E E   E. S +E  E. S +E  E E
|-----------------------|-----------------------*|
|-----------------------|-----------------------*|
|-----------------------|-----------------------*|
|-------------------3-3-|-------------------3-3-*|
|-2--5-(5)-4--5-(5)-1-1-|-2--5-(5)-4--5-(5)-1-1-*|
|-0--3-(3)-2--3-(3)-----|-0--3-(3)-2--3-(3)-----*|




--------------------------------------------------------------------------------


Duration Legend
---------------
W - whole; H - half; Q - quarter; E - 8th; S - 16th; T - 32nd; X - 64th; a - acciaccatura
+ - note tied to previous; . - note dotted; .. - note double dotted
Uncapitalized letters represent notes that are staccato (1/2 duration)
Irregular groupings are notated above the duration line
Duration letters will always appear directly above the note/fret number it represents the
duration for.  Duration letters with no fret number below them represent rests.  Multi-
bar rests are notated in the form Wxn, where n is the number of bars to rest for.  Low
melody durations appear below the staff

Tablature Legend
----------------
 h   - hammer-on
 p   - pull-off
 b   - bend
 pb  - pre-bend
 r   - bend release (if no number after the r, then release immediately)
 /\  - slide into or out of (from/to "nowhere")
 s   - legato slide
 S   - shift slide
 - natural harmonic
[n]  - artificial harmonic
n(n) - tapped harmonic
 ~   - vibrato
 tr  - trill
 T   - tap
 TP  - trem. picking
 PM  - palm muting
\n/  - tremolo bar dip; n = amount to dip
 \n  - tremolo bar down
 n/  - tremolo bar up
/n\  - tremolo bar inverted dip
 =   - hold bend; also acts as connecting device for hammers/pulls
 <> - volume swell (louder/softer)
 x   - on rhythm slash represents muted slash
 o   - on rhythm slash represents single note slash

Misc Legend
-----------
 |  - bar
||  - double bar
||o - repeat start
o|| - repeat end
*|  - double bar (ending)
 :  - bar (freetime)
 $  - Segno
 &  - Coda
Tempo markers -  = BPM(8/16=s8/s16), where s8 = swing 8ths, s16 = swing 16ths


Related for Sellout tab