Song name
# A B C D E F G H I J K L M N O P Q R S T U V W X Y Z

Living Things - Let It Rain tab

LIVING THINGS
LET IT RAIN
HABEAS CORPUS

Both guitars are in Standard Tuning

(Figure out the timing by listening to the song)

Intro

e|-------------|--------------| (PLAY THIS TWICE BUT ON THE SECOND TIME
B|6-8--8--8--8-|--8--8--8--8-6|  LEAVE OUT THE FIRST Bb CORD)
G|7-8--8--8--8-|--8--8--8--8-7|
D|8-10-10-10-10|-10-10-10-10-8|
A|-------------|--------------|
E|-------------|--------------|

Verse 1

e|---------------------------|----------------|
B|--8--8--8--8--8--8--8--8--8|-6-6-6-6-6-6-6-6|
G|--8--8--8--8--8--8--8--8--8|-7-7-7-7-7-7-7-7|
D|-10-10-10-10-10-10-10-10-10|-8-8-8-8-8-8-8-8|
A|---------------------------|----------------|
E|---------------------------|----------------|

e|------------------|----------------------| (PLAY THE WHOLE VERSE THREE TIMES
B|-4-4-4-4-6-6-4-4-4|-4-4-3-3-3-4-4-6-6-6--|  BUT ON THE LAST TIME, THE
G|-5-5-5-5-7-7-5-5-5|-5-5-4-4-4-5-5-7-7-7--|  DISTORTED GUITAR PLAYS THE TOP
D|-6-6-6-6-8-8-6-6-6|-6-6-5-5-5-6-6-8-8-8--|  NOTE OF THE LAST FOUR CHORDS
A|------------------|----------------------|  BEING Eb, D, Eb, F)
E|------------------|----------------------|

Chours 1

e|----------------|----------------|
B|----------------|----------------| PLAY FOUR TIMES
G|-5-5-5-5--------|---------8-8-7-7|
D|-5-5-5-5-5-5-5-5|-8-8-8-8-8-8-7-7|
A|-3-3-3-3-5-5-5-5|-8-8-8-8-6-6-5-5|
E|---------3-3-3-3|-6-6-6-6--------|

Halfway through the chorus, another guitar plays this:

e|-15-15-15-15-15-15-15-15|-16-16-16-16-15-15-15-15--|
B|-16-16-16-16-16-16-16-16|-18-18-18-18-16-16-16-16--|
G|------------------------|--------------------------|
D|------------------------|--------------------------|
A|------------------------|--------------------------|
E|------------------------|--------------------------|

VERSE 2: Same is verse one, just played two time

CHORUS 2: Same as chorus one, except on the last time, keep playing Bb for the last part

BRIDGE

GUITAR ONE

e|-----------------|---------------------------------| THOSE ARE 17S, played
B|-----------------|---------------------------------| four times
G|-5555555555555555|-1717171717171717----------------|
D|-----------------|---------------------------------|
A|-----------------|------------------3--3-----------|
E|-----------------|---------------------------------|

GUITAR TWO

e|------------------------|----------------------------| PLAY FOUR TIMES, THE
B|------------------------|----------------------------| Ab, Bb, C at the end
G|------------------------|----------------------------| REPLACES THE LAST 2 C
D|------------------------|----------------------------| ONLY ON THE LAST TIME
A|-3-5~-3-6~-3-5~-3-6~-3-3|----------------------------| (GUITAR 1 ALSO PLAYS
E|------------------------|--4~-6~--8~-----------------|  THE Ab, Bb, C)

VERSE 3

VOCALS AND SYNTH INSTRUMENT WHICH IS JUST THE VERSE CHORDS PLAYED ONCE

CHORUS 3: SOAME AS LAST TWO, BUT PLAY SIX TIMES INSTEAD OF FOUR AND ON THE LAST 
TIME, KEEP PLAYING Bb.

OUTRO

BRIDGE EXCEPT PLAYED TWICE SECOND TIME ENDING ON Ab, Bb, C (THE C is a POWER CHORD)

Sorry if this tab is confusing at times, but it shouldn't be too hard to figure out. 
enjoy, good questions and comments are welcome, AND RETARTED BS IS NOT WELCOME!! Peace
Tap to rate this tab
 
# A B C D E F G H I J K L M N O P Q R S T U V W X Y Z