Song name
# A B C D E F G H I J K L M N O P Q R S T U V W X Y Z

Loaded - Mothers Day tab

Help us improve GuitareTab! Take a short survey!
this is the start of mothers day its not much but it would be great if someone could finish it

|-----------------------------------|
|-----------------------------------|
|-----------------------------------|
|---------------4-------------------|
|---2-2/4-2---2---4-4/6-4-2---------|
|-0---------0-----------------------|

and sometimes it does this

|------------------------------------------|
|------------------------------------------|
|------------------------------------------|
|---------------4-4/6-4--------------------|
|---2-2/4-2---2---------4/6-4-2------------|
|-0---------0------------------------------|
Related for Mothers Day tab