Song name
# A B C D E F G H I J K L M N O P Q R S T U V W X Y Z

Local H - Bound For The Floor tab

------------------------------------------------------------------------
                                   Local H
                              Bound For the Floor
------------------------------------------------------------------------

This is the correct way people. This is the whole song too.
Tuning is a half-step down. Tried to indicate rhythm to make
it easier.

------------------------------------------------------------------------|
------------------------------------------------------------------------|

Verse


eb--------------------------------------------------------------|
Bb-5--5--5-5---5--5-5---5-5-5-5---5--5--5-5---5--5-5---------0--|
Gb-4--4--4-4---4--4-4---4-4-4-4---4--4--4-4---4--4-4---4/5/4-0--|
Db-2--2--2-2---2--2-2---2-2-2-2---2--2--2-2---0--0-0---0-0-0-0--|
Ab-0--0--0-0---3--3-3---3-3-3-0---------------------------------|
Eb--------------------------------3--3--3-3---------------------|


Chorus

eb------------------------------------------------------------|
Bb-2-2--2-2-2-5--5-5-5----------------------7--7-7-7----------|
Gb-2-2--2-2-2-5--5-5-5-----------5-5--5-5-5-7--7-7-7----------|
Db-2-2--2-2-2-3--3-3-3-2h3p2p0---5-5--5-5-5-5--5-5-5-2h3p2p0--|
Ab-------------------------------3-3--3-3-3-------------------|
Eb------------------------------------------------------------|


Solo Rhythm (palm-muted)

eb------------------------------------------------------------------|
Gb------------------------------------------------------------------|
Bb------------------------------------------------------------------|
Db------------------------------------------------0-0-0-0-0-0-0-0---|
Ab-0-0-0-0-0-0-0-0--3-3-3-3-3-3-3-----------------------------------|
Eb--------------------------------0-0-0-0-0-0-0-0-------------------|


Solo lead

eb---------------------------------|
Gb---------------------------------|
Bb-4--2-4b6r-2-4---4-4-2-4b6r-2-4--|
Db---------------------------------|
Ab---------------------------------|
Eb---------------------------------|


That's it.

Intro: 2 verses
Verse 1: 4x
Chorus 1: 2x
Verse 2: 4x
Chorus 2: 6x
Solo a bunch of times
Last chorus go through 4 times, then outro.
Tap to rate this tab
# A B C D E F G H I J K L M N O P Q R S T U V W X Y Z