Song name
# A B C D E F G H I J K L M N O P Q R S T U V W X Y Z

Local H - Bound For The Floor tab

Artist: Local H
Song: Bound For The Floor
Album: As Good As Dead

Intro:
eb-x-x-x-x--x-x-x-x-x-x--x-x-x-x--x-x-x-x-x-x-|
Bb-0-0-0-0--0-0-0-0-0-0--0-0-0-0--0-0-0-0-0-0-|
Gb-4-4-4-4--4-4-4-4-4-4--4-4-4-4--4-4-4-5-4-5-|
Db-2-2-2-2--2-2-2-2-2-2--0-0-0-0--0-0-0-0-0-0-|
Ab-0-0-0-0--3-3-3-3-3-3--2-2-2-2--5-5-5-5-5-5-|
Eb-x-x-x-x--0-0-0-0-0-0--3-3-3-3--x-x-x-x-x-x-|

Verse 1:

Born to be down,
I've learned all my lessons before now...
Born to be down,
I think you'll get used to it.

And you just don't get it,
you keep it copacetic.
And you learn to accept it,
And you know it's so pathetic.

eb-x-x-x-x--x-x-x-x-x-x--x-x-x-x--x-x-x-x-x-x-|
Bb-0-0-0-0--0-0-0-0-0-0--0-0-0-0--0-0-0-0-0-0-|
Gb-4-4-4-4--4-4-4-4-4-4--4-4-4-4--4-4-4-5-4-5-|
Db-2-2-2-2--2-2-2-2-2-2--0-0-0-0--0-0-0-0-0-0-|
Ab-0-0-0-0--3-3-3-3-3-3--2-2-2-2--5-5-5-5-5-5-|
Eb-x-x-x-x--0-0-0-0-0-0--3-3-3-3--x-x-x-x-x-x-|

Chorus: 

And you don't...

eb-0-0-0-0--0-0-0-0-0-0--0-0-0-0--0-0-0--0-0-0-|
Bb-0-0-0-0--0-0-0-0-0-0--0-0-0-0--0-0-0--0-0-0-|
Gb-2-2-2-2--5-5-5-5-5-5--0-0-0-0--7-7-7--5-4-5-|
Db-2-2-2-2--5-5-5-5-5-5--5-5-5-5--7-7-7--0-0-0-|
Ab-0-0-0-0--3-3-3-3-3-3--5-5-5-5--5-5-5--4-4-4-|
Eb-x-x-x-x--x-x-x-x-x-x--3-3-3-3--x-x-x--x-x-x-|

Verse 2:

Born to be down,
I think that I've said this before now...
Born to be down
What good is confidence?

And you just don't get it,
you keep it copacetic.
And you learn to accept it,
You know it's so pathetic.

eb-x-x-x-x--x-x-x-x-x-x--x-x-x-x--x-x-x-x-x-x-|
Bb-0-0-0-0--0-0-0-0-0-0--0-0-0-0--0-0-0-0-0-0-|
Gb-4-4-4-4--4-4-4-4-4-4--4-4-4-4--4-4-4-5-4-5-|
Db-2-2-2-2--2-2-2-2-2-2--0-0-0-0--0-0-0-0-0-0-|
Ab-0-0-0-0--3-3-3-3-3-3--2-2-2-2--5-5-5-5-5-5-|
Eb-x-x-x-x--0-0-0-0-0-0--3-3-3-3--x-x-x-x-x-x-|

Chorus: 

And you don't...
And you just don't get it,
you keep it copacetic.
And you learn to accept it,
You know it's so pathetic.


eb-0-0-0-0--0-0-0-0-0-0--0-0-0-0--0-0-0--0-0-0-|
Bb-0-0-0-0--0-0-0-0-0-0--0-0-0-0--0-0-0--0-0-0-|
Gb-2-2-2-2--5-5-5-5-5-5--0-0-0-0--7-7-7--5-4-5-|
Db-2-2-2-2--5-5-5-5-5-5--5-5-5-5--7-7-7--0-0-0-|
Ab-0-0-0-0--3-3-3-3-3-3--5-5-5-5--5-5-5--4-4-4-|
Eb-x-x-x-x--x-x-x-x-x-x--3-3-3-3--x-x-x--x-x-x-|

Bridge:

eb---------------------------------------------------|
Bb---------------------------------------------------|
Gb-4-4-2-5/4---4-4-4-2/5-4---4-4-2-5/4---4-4-4-2-5/4-|
Db---------------------------------------------------|
Ab---------------------------------------------------|
Eb---------------------------------------------------|

Tap to rate this tab
# A B C D E F G H I J K L M N O P Q R S T U V W X Y Z