Song name
# A B C D E F G H I J K L M N O P Q R S T U V W X Y Z

London Grammar - Stay Awake tab

London Grammar
Stay Awake


Tuning: standard

/ = slide up
\ = slide Down
~ = vibrato


INTRO

  D#m     C#        B                 D#m     C#         F#
E-----------------|-----------------|-----------------|-----------------|
B-----------------|-----------------|-----------------|-----------------|
G-11------10------|-8---------------|-11------10------|-15--------------|
D-13------11------|-9---------------|-13------11------|-16--------------|
A-13------11------|-9---------------|-13------11------|-16--------------|
E-11------9-------|-7---------------|-11------9-------|-14--------------|

  G#m     F#        C#                F#      C#        D#m     C#
E-----------------|-----------------|-----------------|-----------------|
B-----------------|-----------------|-----------------|-----------------|
G-4-------3-------|-10--------------|-3-------10------|-11------10------|
D-6-------4-------|-11--------------|-4-------11------|-13------11------|
A-6-------4-------|-11--------------|-4-------11------|-13------11------|
E-4-------2-------|-9---------------|-2-------9-------|-11------9-------|

  B
E-----------------|-----------------|
B-----------------|-----------------|
G-8---------------|-----------------|
D-9---------------|-----------------|
A-9---------------|-----------------|
E-7---------------|-----------------|


VERSE

  D#m     C#        B                 D#m     C#         F#
E-----------------|-----------------|-----------------|-----------------|
B-----------------|-----------------|-----------------|-----------------|
G-11------10------|-8---------------|-11------10------|-15--------------|
D-13------11------|-9---------------|-13------11------|-16--------------|
A-13------11------|-9---------------|-13------11------|-16--------------|
E-11------9-------|-7---------------|-11------9-------|-14--------------|

  G#m     F#        C#                F#      C#        D#m     C#
E-----------------|-----------------|-----------------|-----------------|
B-----------------|-----------------|-----------------|-----------------|
G-4-------3-------|-10--------------|-3-------10------|-11------10------|
D-6-------4-------|-11--------------|-4-------11------|-13------11------|
A-6-------4-------|-11--------------|-4-------11------|-13------11------|
E-4-------2-------|-9---------------|-2-------9-------|-11------9-------|

  B
E-----------------|-----------------|
B-----------------|-----------------|
G-8---------------|-----------------|
D-9---------------|-----------------|
A-9---------------|-----------------|
E-7---------------|-----------------|


CHORUS

E-----------------------------------|-----------------------------------|
B-----------------------------------|-----------------------------------|
G-----------------------------------|-----------------------------------|
D--13\11---11---11---11\8---8---8---|--8\6----6----6----6\4----4----4---|
A-----------------------------------|-----------------------------------|
E-----------------------------------|-----------------------------------|

         ~   ~          ~   ~   ~        ~   ~   ~          ~   ~   ~
E-----------------------------------|-----------------------------------|
B-----------------------------------|-----------------------------------|
G-----------------------------------|-----------------------------------|
D--4\1---1---1----------1---1---1---|----1---1---1----------1---1---1---|
A-----------------------------------|-----------------------------------|
E-----------------------------------|-----------------------------------|


E-----------------------------------|-----------------------------------|
B-----------------------------------|-----------------------------------|
G-----------------------------------|-----------------------------------|
D--1/4----4----4----4/6----6----6---|--6/8----8----8----8/11---11---11--|
A-----------------------------------|-----------------------------------|
E-----------------------------------|-----------------------------------|

          ~   ~         ~       ~        ~       ~          ~   ~   ~
E-----------------------------------|-----------------------------------|
B-----------------------------------|-----------------------------------|
G-----------------------------------|-----------------------------------|
D--11/13--13--13--------13--15--13--|----13------13---------13--13--13--|
A-----------------------------------|-----------------------------------|
E-----------------------------------|-----------------------------------|


E-----------------------------------|-----------------------------------|
B-----------------------------------|-----------------------------------|
G-----------------------------------|-----------------------------------|
D--13\11---11---11---11\8---8---8---|--8\6----6----6----6\4----4----4---|
A-----------------------------------|-----------------------------------|
E-----------------------------------|-----------------------------------|

         ~   ~          ~   ~   ~        ~   ~   ~          ~   ~   ~
E-----------------------------------|-----------------------------------|
B-----------------------------------|-----------------------------------|
G-----------------------------------|-----------------------------------|
D--4\1---1---1----------1---1---1---|----1---1---1----------1---1---1---|
A-----------------------------------|-----------------------------------|
E-----------------------------------|-----------------------------------|


E-----------------------------------|-----------------------------------|
B-----------------------------------|-----------------------------------|
G-----------------------------------|-----------------------------------|
D--1/4----4----4----4/6----6----6---|--6/8----8----8----8/11---11---11--|
A-----------------------------------|-----------------------------------|
E-----------------------------------|-----------------------------------|

          ~   ~         ~       ~
E-----------------------------------|-----------------------------------|
B-----------------------------------|-----------------------------------|
G-----------------------------------|-----------------------------------|
D--11/13--13--13--------13--15--13--|-----------------------------------|
A-----------------------------------|-----------------------------------|
E-----------------------------------|-----------------------------------|


PIANO INTERLUDE


VERSE

  D#m     C#        B                 D#m     C#         F#
E-----------------|-----------------|-----------------|-----------------|
B-----------------|-----------------|-----------------|-----------------|
G-11------10------|-8---------------|-11------10------|-15--------------|
D-13------11------|-9---------------|-13------11------|-16--------------|
A-13------11------|-9---------------|-13------11------|-16--------------|
E-11------9-------|-7---------------|-11------9-------|-14--------------|

  G#m     F#        C#                F#      C#        D#m     C#
E-----------------|-----------------|-----------------|-----------------|
B-----------------|-----------------|-----------------|-----------------|
G-4-------3-------|-10--------------|-3-------10------|-11------10------|
D-6-------4-------|-11--------------|-4-------11------|-13------11------|
A-6-------4-------|-11--------------|-4-------11------|-13------11------|
E-4-------2-------|-9---------------|-2-------9-------|-11------9-------|

  B
E-----------------|-----------------|
B-----------------|-----------------|
G-8---------------|-----------------|
D-9---------------|-----------------|
A-9---------------|-----------------|
E-7---------------|-----------------|


CHORUS

|                                                                           |
| E-----------------------------------|-----------------------------------| |
| B-----------------------------------|-----------------------------------| |
| G-----------------------------------|-----------------------------------| |
| D--13\11---11---11---11\8---8---8---|--8\6----6----6----6\4----4----4---| |
| A-----------------------------------|-----------------------------------| |
| E-----------------------------------|-----------------------------------| |
|                                                                           |
|          ~   ~          ~   ~   ~        ~   ~   ~          ~   ~   ~     |
| E-----------------------------------|-----------------------------------| |
| B-----------------------------------|-----------------------------------| |
| G-----------------------------------|-----------------------------------| |
| D--4\1---1---1----------1---1---1---|----1---1---1----------1---1---1---| |
| A-----------------------------------|-----------------------------------| |
| E-----------------------------------|-----------------------------------| |
|                                                                           |   x3
|                                                                           |
| E-----------------------------------|-----------------------------------| |
| B-----------------------------------|-----------------------------------| |
| G-----------------------------------|-----------------------------------| |
| D--1/4----4----4----4/6----6----6---|--6/8----8----8----8/11---11---11--| |
| A-----------------------------------|-----------------------------------| |
| E-----------------------------------|-----------------------------------| |
|                                                                           |
|           ~   ~         ~       ~        ~       ~          ~   ~   ~     |
| E-----------------------------------|-----------------------------------| |
| B-----------------------------------|-----------------------------------| |
| G-----------------------------------|-----------------------------------| |
| D--11/13--13--13--------13--15--13--|----13------13---------13--13--13--| |
| A-----------------------------------|-----------------------------------| |
| E-----------------------------------|-----------------------------------| |
|                                                                           |


E-----------------------------------|-----------------------------------|
B-----------------------------------|-----------------------------------|
G-----------------------------------|-----------------------------------|
D--13\11---11---11---11\8---8---8---|--8\6----6----6----6\4----4----4---|
A-----------------------------------|-----------------------------------|
E-----------------------------------|-----------------------------------|

         ~   ~          ~   ~   ~        ~   ~   ~          ~   ~   ~
E-----------------------------------|-----------------------------------|
B-----------------------------------|-----------------------------------|
G-----------------------------------|-----------------------------------|
D--4\1---1---1----------1---1---1---|----1---1---1----------1---1---1---|
A-----------------------------------|-----------------------------------|
E-----------------------------------|-----------------------------------|


E-----------------------------------|-----------------------------------|
B-----------------------------------|-----------------------------------|
G-----------------------------------|-----------------------------------|
D--1/4----4----4----4/6----6----6---|--6/8----8----8----8/11---11---11--|
A-----------------------------------|-----------------------------------|
E-----------------------------------|-----------------------------------|

          ~   ~         ~       ~
E-----------------------------------|-----------------------------------||
B-----------------------------------|-----------------------------------||
G-----------------------------------|-----------------------------------||
D--11/13--13--13--------13--15--13--|-----------------------------------||
A-----------------------------------|-----------------------------------||
E-----------------------------------|-----------------------------------||


END
Tap to rate this tab
# A B C D E F G H I J K L M N O P Q R S T U V W X Y Z