Song name
# A B C D E F G H I J K L M N O P Q R S T U V W X Y Z

Long Beach Dub Allstars - Sunny Hours tab

INTRO:
|----------22------------------------------------------------|
|----------33------------------------------------------------|
|-----2222-22--222-------------------------------------------|
|2-2--2222-----222-------------------------------------------|
|2-2---------------------------------------------------------|
|------------------------------------------------------------|

VERSE:
|-------2--------------------------------|
|------3-3--2---2------------------------|
|---1-2----2-2-2-2-----------------------|
|--2-2----2---2--------------------------|
|-2--------------------------------------|
|----------------------------------------|

CHORUS:
|----------22------------------------------------------------|
|----------33------------------------------------------------|
|-----2222-22--222-------------------------------------------|
|2-2--2222-----222-------------------------------------------|
|2-2---------------------------------------------------------|
|------------------------------------------------------------|

VARIATION OF CHORUS AND INTRO:
|-----------------------------------------------------|
|-----------------------------------------------------|
|-----------------------------------------------------|
|-2-2-------77----------------------------------------|
|-2-2--777--55-777------------------------------------|
|------5555----555------------------------------------|


IN ORDER:
INTRO 1X
VERSE
CHORUS
VERSE
CHORUS
THEN DO THIS:
|---------2222--------------------|
|---------3333--------------------|
|----2222-2222--------------------|
|-22-2222-------------------------|
|-22------------------------------|
|---------------------------------|
VERSE
WHEN EVERYTHING STOPS AND ITS GUITAR AND RAS SAYS"LET THE LOVIN COME BACK TO ME" AND AT THE END DO THIS:
E|-5-5-7-7-5-5--7-7-5-5-7-7--5-5-7-7-5-5-7-7---------|
B|--5-5-5-5-5-5--5-5-5-5-5-5--5-5-5-5-5-5-5-5--------|AS MANY TIMES AS NEEDED

THEN:
CHORUS
THEN THE THING ABOVE


THATS IT, IF U HAVE ANY QUESTIONS EMAIL ME AT sublimefan2355@yahoo.com 
I WILL PUT UP THE BASS LINE SOON!!!!
MY NAME IS TYLER BY THE WAY...



Tap to rate this tab
# A B C D E F G H I J K L M N O P Q R S T U V W X Y Z