Song name
# A B C D E F G H I J K L M N O P Q R S T U V W X Y Z

Long John Baldry - Dont Try To Lay No Boogie Woogie On The King Of Rock And Roll tab

  Basically, you just play this as a constant driving boogie rhythm through
  the whole song. Itīs dead easy. You will pick up the timing after a few
  listenings.

  E------------------------------------------------------------------------|
  B------------------------------------------------------------------------|
  G------------------------------------------------------------------------|
  D--------5----5----8----8----5----8--------------------------------------|
  A------------------------------------------------------------------------|
  E--------------------------------------8----6----3-----------------------|


  E------------------------------------------------------------------------|
  B------------------------------------------------------------------------|
  G--------5----5----8----8----5----8--------------------------------------|
  D------------------------------------------------------------------------|
  A--------------------------------------8----6----3-----------------------|
  E------------------------------------------------------------------------|


  E--------5----5----8----8----5----8----10----8----5----------------------|
  B------------------------------------------------------------------------|
  G------------------------------------------------------------------------|
  D------------------------------------------------------------------------|
  A------------------------------------------------------------------------|
  E------------------------------------------------------------------------|


  There it is. Have fun!
Tap to rate this tab
 
# A B C D E F G H I J K L M N O P Q R S T U V W X Y Z