Song name
# A B C D E F G H I J K L M N O P Q R S T U V W X Y Z

Longview - When You Sleep tab

Help us improve GuitareTab! Take a short survey!
Artist:Longview [also known as Long-View]
Album: Mercury [March 15, 2005] 

When You Sleep
==============

Chords Used:
===========     E A D G B E
		-----------
	Dm	5 5 7 7 6 5
	Bb	1 1 3 3 3 1
	F	1 3 3 2 1 1
	C	3 3 5 5 5 3
	

Intro
=====
Dm Bb F Bb C [play Bb up to C in quick succession]
  Dm             Bb             F 
|-5-5-5-5-5-5-5--1-1-1-1-1-1-1--1-1-1-1-1-1-1--|
|-6-6-6-6-6-6-6--3-3-3-3-3-3-3--1-1-1-1-1-1-1--|
|-7-7-7-7-7-7-7--3-3-3-3-3-3-3--2-2-2-2-2-2-2--|
|-7-7-7-7-7-7-7--3-3-3-3-3-3-3--3-3-3-3-3-3-3--|
|-5-5-5-5-5-5-5--1-1-1-1-1-1-1--3-3-3-3-3-3-3--|
|-5-5-5-5-5-5-5--1-1-1-1-1-1-1--1-3-3-3-3-3-3--|
 Bb C
|-1/3-3-3-3-3-3--|
|-3/5-5-5-5-5-5--|
|-3/5-5-5-5-5-5--|   Repeat x2
|-3/5-5-5-5-5-5--|
|-1/3-3-3-3-3-3--|
|-1/3-3-3-3-3-3--|

[same chords are also used for chorus]

Long-View: Rob McVey (vocals); Doug Morch (guitar); Aidan Banks (bass instrument); Matt Dabbs (drums).

Tabbed by Lewis Strong
======
Related for When You Sleep tab