Guitaretab - guitar tabs
Song name
# A B C D E F G H I J K L M N O P Q R S T U V W X Y Z

Lonlonjp - Blue Bird tab

Tabbed by Silent_Heart
email:fierce_angel005@yahoo.com
Blue bird naruto opening (simplier version)
Note: this tab you will find easier than the orginal this tab didn't mostly use the 4th 
5th and 6th string


e|---2-4-5-4-2-----2-4-5-7-------7-9-----2-4-5-4-2----9-7----9-7---0-0-2-2-|
B|-2-------------2---------10-10-------2------------7------7---------------|
G|-------------------------------------------------------------------------|
D|-------------------------------------------------------------------------|
A|-------------------------------------------------------------------------|
E|-------------------------------------------------------------------------|

|-9-7--7-5-4--5---5-4-2--4----------------4-5--5-4-2-2-------------|
|---------------------------5-2---7--6--7--------------0--2--2-2-2-|
|------------------------------------------------------------------|
|------------------------------------------------------------------|
|------------------------------------------------------------------|
|------------------------------------------------------------------|


e|--------2-----0--0--0-----4-5-4------4--5----5--4--2-0-2---|
B|--3--5-----5-----------7------6----7----2----2--0----------|
G|-----------------------------------------------------------|
D|-----------------------------------------------------------|
A|-----------------------------------------------------------|
E|-----------------------------------------------------------|
[ Tab from: http://www.guitaretab.com/l/lonlonjp/286087.html ]
---------------------5-4--2-0-0---2-2----2-4--5--------5-----4--5---4----4-4--|
---0--2--2----2-2--3----------------------------------------------------------|
------------------------------------------------------------------------------|
------------------------------------------------------------------------------|
------------------------------------------------------------------------------|
------------------------------------------------------------------------------|
*Note:Repeat this part two times but the  part B=7 e=9-7 3x

e|--5--7------------7--5--4----2---------7--9---------7--9------9--12-10------------------------|
B|--------------------------------------------------------------------------------------------10|
G|----------------------------------------------------------------------------------------10----|
D|----------------------------------------------------------------------------------10-11-------|
A|-------------------------------------------------------------------------11-10-11-------------|
E|----------------------------------------------------------------------------------------------|

|----2-4-5-4-2-----2-4-5-7-------7-9-----2-4-5-4-2----9-7----9-7---0-0-2-2-|
|--2-------------2---------10-10-------2------------7------7---------------|
|--------------------------------------------------------------------------|
|--------------------------------------------------------------------------|
|--------------------------------------------------------------------------|
|--------------------------------------------------------------------------|



e|---------------9---7-------------7-5-4-5-----------5-4-2-4--------------|
B|-----------10-10---9-----------------------------------------5-2--7---6-|
G|--11-10-11--------------------------------------------------------------|
D|------------------------------------------------------------------------|
A|------------------------------------------------------------------------|
E|------------------------------------------------------------------------|



                                   ^
e|-----------------4-----4-----4----5-------------------------------------|
B|------6----------2-----2-----2----2-------------------------------------|
G|------4----------4-----4-----4----2-------------------------------------|
D|------6-----------------------------------------------------------------|
A|--4-4-4-4-4-4-4---------------------------------------------------------|
E|-----------------2-2-2-2-2-2-2----2-------------------------------------|
Related for Blue Bird tab
Blue Bird chords by Lonlonjp