Song name
# A B C D E F G H I J K L M N O P Q R S T U V W X Y Z

Look Mexico - You Ever Get Punched In The Face For Talking To Much tab

my first tab :D
listen to the song for timing . im pretty sure that this is exactly how its played .




e|--------------------|
b|--------------------|
g|--0---------0-------|
d|---0-2-4-5---0-2-0--| played 7 or 8 times
a|-3---------3------2-|
e|--------------------|

e|-0-0----0-2/5--0-5h7--|-0-0----0-2/5--0-5h7-|-0-0----0-2/5--0-5h7--|
b|-0-0--0------0--------|-0-0--0------0-------|-0-0--0------0--------|
g|-0-0----0------0------|-0-0----0------0-----|-0-0----0------0------|
d|-2-4--0------0--------|-2-4--0------0-------|-2-4--0------0--------|
a|-3-5------------------|-3-5-----------------|-3-5------------------|
e|-0-0------------------|-0-0-----------------|-0-0------------------|

e|--------------------|
b|--------------------|
g|--0---------0-------|
d|---0-2-4-5---0-2-0--| played 4 times 
a|-3---------3------2-|
e|--------------------|

e|-0-0----0-2/5--0-5h7--|-0-0----0-2/5--0-5h7-|-0-0----0-2/5--0-5h7--|
b|-0-0--0------0--------|-0-0--0------0-------|-0-0--0------0--------|
g|-0-0----0------0------|-0-0----0------0-----|-0-0----0------0------|
d|-2-4--0------0--------|-2-4--0------0-------|-2-4--0------0--------|
a|-3-5------------------|-3-5-----------------|-3-5------------------|
e|-0-0------------------|-0-0-----------------|-0-0------------------|

e|--------------------|
b|--------------------|
g|--0---------0-------|
d|---0-2-4-5---0-2-0--| played till the end of the song 
a|-3---------3------2-|
e|--------------------|
Tap to rate this tab
 
# A B C D E F G H I J K L M N O P Q R S T U V W X Y Z