Song name
# A B C D E F G H I J K L M N O P Q R S T U V W X Y Z

Lord Huron - The Stranger tab

http://www.lordhuron.com/

Lord Huron
The Stranger
Mighty - EP

Standard tuning

I watched a live performance and this is completely correct for the intro.

Guitar 1
e-----------12----------12--12---10---7-----5-----5-----5--3-0---0---------|
B-----------------------------------------0-----0-----0--------3---0-------|
G-------12----------12------------------0-----0-----0---------------0------|
D---10----10----10----10----10---------------------------------------------|
A--------------------------------10---7-----5-----5-----5--3---------------|
E--------------------------------------------------------------------------|



Guitar 2
---------7------7------7------7----|
------8------8------8------8-------|
---0------0------0------0----------|
-----------------------------------|
-----------------------------------|
-----------------------------------|
Tap to rate this tab
 
# A B C D E F G H I J K L M N O P Q R S T U V W X Y Z