Song name
# A B C D E F G H I J K L M N O P Q R S T U V W X Y Z

Los Esquizitos - I Walked With A Zombie tab

i walked with a zombie


los esquizitos


TRANSCRIBED BY RUDY GUZMAN


guzman_84@hotmail.com




    slide bottleneck                                            
e:-----------------------------------------------------------------------|
B:--------------------2/bridge-x~~~~~~~\---2/bridge-x~~\---2/bridge-x~~\-|
G:--------------------2/bridge-x~~~~~~~\---2/bridge-x~~\---2/bridge-x~~\-|
D:-2/8\2~~~~~-2/14\2-----------------------------------------------------|
A:-----------------------------------------------------------------------|
E:-----------------------------------------------------------------------|

e:-------------------------------------------------------------------------------------|
B:-------------------------------------------------------------------------------------|
G:-------------------------------------------------------------------------------------|
D:-------------------------------------------------------------------------------------|
A:-10-10-10-10-10-10-10-10-10-10-9-7-7-7-7-7-7-7-7-7-7-7-7-5-3-3-3-3-3-3-5-5-5-5-5-5-5-|
E:-8--8--8--8--8--8--8--8--8--8--7-5-5-5-5-5-5-5-5-5-5-5-5-3-1-1-1-1-1-1-3-3-3-3-3-3-3-|

e:------------------------------------------|
B:------------------------------------------|
G:------------------------------------------|
D:------------------------------------------|
A:-10-10-10-10-10-9-10-10-10-10-10-10-10-10-|
E:-8--8--8--8--8--7-8--8--8--8--8--8--8--8--|

  i walked with a zombie i walked with a zombie i walked with a zombie last night
e:-------------------------------------------------------------------------------------|
B:-------------------------------------------------------------------------------------|
G:-------------------------------------------------------------------------------------|
D:-------------------------------------------------------------------------------------|
A:-10-10-10-10-10-10-10-10-10-10-9-7-7-7-7-7-7-7-7-7-7-7-7-5-3-3-3-3-3-3-5-5-5-5-5-5-5-|
E:-8--8--8--8--8--8--8--8--8--8--7-5-5-5-5-5-5-5-5-5-5-5-5-3-1-1-1-1-1-1-3-3-3-3-3-3-3-|

e:------------------------------------------|
B:------------------------------------------|
G:------------------------------------------|
D:------------------------------------------|
A:-10-10-10-10-10-9-10-10-10-10-10-10-10-10-|
E:-8--8--8--8--8--7-8--8--8--8--8--8--8--8--|

  
e:----------------------------------------------------------------------3/22-|
B:--------4-6b--8-------------------------------------------------------3/22-|
G:-8-5~~~---------8b------6-7-8b-8-7----7ahb-5-------------------------------|
D:-----------------------------------6---------7~~-5-3~~~~~--5~~~~~~~--------|
A:--------------------9-7----------------------------------------------------|
E:--------------------7-5----------------------------------------------------|

e:----------------------------------------------------------------------3/22-|
B:--------4-6b--6-8--1----------1------3--------------------------------3/22-|
G:-5-8-5---------------3--3-2-----2--5-------x\------------------------------|
D:-------------------------------------------x\--3~~~~~--5~~~~~~~------------|
A:---------------------------------------------------------------------------|
E:---------------------------------------------------------------------------|


e:-------------------------------------------------------------------------------------|
B:-------------------------------------------------------------------------------------|
G:-------------------------------------------------------------------------------------|
D:-------------------------------------------------------------------------------------|
A:-10-10-10-10-10-10-10-10-10-10-9-7-7-7-7-7-7-7-7-7-7-7-7-5-3-3-3-3-3-3-5-5-5-5-5-5-5-|
E:-8--8--8--8--8--8--8--8--8--8--7-5-5-5-5-5-5-5-5-5-5-5-5-3-1-1-1-1-1-1-3-3-3-3-3-3-3-|

e:------------------------------------------|
B:------------------------------------------|
G:------------------------------------------|
D:------------------------------------------|
A:-10-10-10-10-10-9-10-10-10-10-10-10-10-10-|
E:-8--8--8--8--8--7-8--8--8--8--8--8--8--8--|

  i walked with a zombie i walked with a zombie i walked with a zombie last 
e:-------------------------------------------------------------------------------------|
B:-------------------------------------------------------------------------------------|
G:-------------------------------------------------------------------------------------|
D:-------------------------------------------------------------------------------------|
A:-10-10-10-10-10-10-10-10-10-10-9-7-7-7-7-7-7-7-7-7-7-7-7-5-3-3-3-3-3-3-5-5-5-5-5-5-5-|
E:-8--8--8--8--8--8--8--8--8--8--7-5-5-5-5-5-5-5-5-5-5-5-5-3-1-1-1-1-1-1-3-3-3-3-3-3-3-|

   night
e:------------------------------------------|
B:------------------------------------------|
G:------------------------------------------|
D:------------------------------------------|
A:-10-10-10-10-10-9-10-10-10-10-10-10-10-10-|
E:-8--8--8--8--8--7-8--8--8--8--8--8--8--8--|

 
  i walked with a zombie i walked with a zombie i walked with a zombie last
e:--------------------------------------------------------------------------|
B:--------------------------------------------------------------------------|
G:--------------------------------------------------------------------------|
D:--------------------------------------------------------------------------|
A:-10-10-10-10-10-10-10-10-10--10-9-8-7--7-6-5-3--3-3-3-3-3-3-5-5-5-5-5-5-5-|
E:-8--8--8--8--8--8--8--8--8---8--7-6-5--5-4-3-1--1-1-1-1-1-1-3-3-3-3-3-3-3-|

   night
e:-----------------------------------------|
B:-----------------------------------------|
G:-----------------------------------------|
D:-----------------------------------------|
A:-10-10-10-10-10--10-10-10-10-10-10-10-10-|
E:-8--8--8--8--8---8--8--8--8--8--8--8--8--|




hillo son mex

29/07/11
Tap to rate this tab
# A B C D E F G H I J K L M N O P Q R S T U V W X Y Z