Song name
# A B C D E F G H I J K L M N O P Q R S T U V W X Y Z

Los Fabulosos Cadillacs - Vasos Vacios tab

Highlighted       Show chord diagrams
Intro:

e --3-2----3-2-5-2----3-2-------3-2------|
B ------3-----------------3-0-3----3-0-3-|
G ---------------------------------------|
D ---------------------------------------|
A ---------------------------------------|
E ---------------------------------------|


G
No se bien que dia es hoy
Em
solo se que te vi salir
     C
y en cinco minutos perdi,
      D
las letras para hablarte a vos.

G
Yo se que no tengo palabras,
Em
y nunca las voy a tener,
    C
por eso aprovecho esta noche,
    D
tal vez lo puedas entender.

G
Por eso aprovecho esta noche,
Em
tal vez lo puedas entender
    C
no me importa poner las letras
    D
solo me importa mi mujer.

G
mañana cuando te levantes,
Em
y pienses lo que dije ayer
    C
ay nena porque en este juego
    D
a mi siempre me toca perder.


Estribillo:

C
Siempre habra vasos vacios
G         D       Em
con agua de la ciudad
      C                D
la nuestra es agua de rio
               G      D
mezclada con mar.

C
Levanta los brazos mujer
G         D           Em
y ponte esta noche a bailar
        C                  D
que la nuestra es agua de rio
              G
mezclada con mar.

Se Repite de nuevo la canción incluyendo la intro
    se escucha mejor con los acordes asi
   G      Em    C     D
e -10-----7-----3-----5--------|
B -12-----8-----5-----7--------|
G -12-----9-----5-----7--------|
D -12-----9-----5-----7--------|
A -10-----7-----3-----5--------|
E -10-----7-----3-----5--------|
Tap to rate this tab
 
# A B C D E F G H I J K L M N O P Q R S T U V W X Y Z