Song name
# A B C D E F G H I J K L M N O P Q R S T U V W X Y Z

Los Lobos - Mariachi Suite tab

Mariachi Suite

Los Lobos

This is the first part from Mariachi Suite by Los Lobos. Sounds pretty
close to the original.


Spanish/Clasic Guitar

-------2--2---6-----4-------------4--11--4------4s6----------------|
-4-7---4--4---7--4---6---6------3-6--33----6--3-----7--------------|
----------------------7----7-------------------------8-------------|
-------------------------------------------------------------------|
-------------------------------------------------------------------|
-------------------------------------------------------------------|


--2s5------2-2--6------4------------------4----------4s6~----------|
--4s7--7---4-4--7-4--4----6-------6---3-3---6------6-------7-4-----|
---------------------------7---4s7-----------7---------------------|
-------------------------------------------------------------------|
-------------------------------------------------------------------|
-------------------------------------------------------------------|


------4-6--6-6-7---7---9---6--6--66---4-2--1---1-4-------4s6---6---|
-4-6-7-----7-7-----9-11---7---7--77--6--4-3----3---6---6----7------|
----------------------------------------------------7--------------|
-------------------------------------------------------------------|
-------------------------------------------------------------------|
-------------------------------------------------------------------|


------4-6--2s4-7~---7-7h9--9--2s6----6--6--4-2--1--1-4-------------|
-4-6-7--------------9------11--------7--7--6-4-3---3---6-6--4~~----|
--------------------------------------------------------7----------|
-------------------------------------------------------------------|
-------------------------------------------------------------------|
-------------------------------------------------------------------|


-------------------------------------------------------------------|
-------------------------------------------------------------------|
------------------------------------------6------------------------|
----------------------------------------6--------------------------|
-------------1---------------1-----4-------------------------------|
--0----0-3--------0-----0-3----------------------------------------|
Tap to rate this tab
 
# A B C D E F G H I J K L M N O P Q R S T U V W X Y Z