Song name
# A B C D E F G H I J K L M N O P Q R S T U V W X Y Z

Los Secretos - Ojos De Gata tab

Estos son los acordes y los punteos, pero se necesita cejilla en el 2º traste

e ---2-2--3h2---0h2-2-3h2---0h2-2-3-2-0-----0----|
b ---3-3------3-----------3-------------3-2------|
g -----------------------------------------------|
d -----------------------------------------------|
a -----------------------------------------------|
e -----------------------------------------------|


e---0-0-2h0-----0-0-2h0------5h3-2-----|
b---1-1-----1-3---------1-3--------5h2-|
g--------------------------------------|
d--------------------------------------|
a--------------------------------------|
e--------------------------------------|
Re
Fue en un pueblo con mar
                            La
Una noche después de un concierto

Tu reinabas detrás

De la barra del único bar
            Re
Que vimos abierto
                       Re7
Cántame una canción al oído
              Sol  La
Te sirvo y no pagas
     Sol               La
Solo canto si tu me demuestras
                Sol        La      Re
Que es verde la luz de tus ojos de gata.

[d'acuerdo con Antonio Suárez Ramón]
                 e---3-----------3---------|
                 B-----2-------2---2-----2-|
                 G-------3---3-------3-----|
                 D-0-------0-----------0---|
                 A-------------------------|
                 E-------------------------|

Re
Loco por que me diera
                    La
la llave de su dormitorio

Esa noche cante

Al piano del amanecer
             Re
Todo mi repertorio
                        Re7
Con el quiero beber el alcohol
                   Sol   La
Me acuno entre sus mantas
    Sol                La
Y soñé con sus ojos de gata
            Sol
Pero no recordé
       La          Re
que de mi algo esperaban. e---3-----------3---------|
                          B-----2-------2---2-----2-|
                          G-------3---3-------3-----|
                          D-0-------0-----------0---|
                          A-------------------------|
                          E-------------------------|
Solo:
                                  Re
e-----------------------------------2-2s5-2-------2-2s5-2-----------------|
B---------------------------------3---------3---3---------3--5-3-2h5-2----|
G--------------------------------2-------------2-------------2------------|
D---0h2-2s4-4-4-4-0-2 2s4-5-2-4-------------------------------------------|
A-0-----------------------------------------------------------------------|
E-------------------------------------------------------------------------|

   La
e----------0-----/------------2s5-2----5-/-3-2-10-9-7-12-9-9s10-9s12-12-10-|
B--------2---3-2-/-----2-3-5-------5-3---/---------------------------------|
G------2---------/-2-4-------------------/---------------------------------|
D----2-----------/-----------------------/---------------------------------|
A--0-------------/-----------------------/---------------------------------|
E----------------/-----------------------/---------------------------------|


Re
Desperté con resaca y busque
                  La
Pero allí ya no estabas

Me dijeron que se mosqueó

Porque me emborrache
                  Re
Y la use como almohada
                      Re7
Comento por ahí que yo era
              Sol   la
Un chaval ordinario
      Sol
Pero como explicar
       La
Que me vuelvo vulgar
     Sol       La      Re
Al bajarme de cada escenario. e---3-----------3---------|
                              B-----2-------2---2-----2-|
                              G-------3---3-------3-----|
                              D-0-------0-----------0---|
                              A-------------------------|
                              E-------------------------|
      Sol
Pero como explicar
       La
Que me vuelvo vulgar
     Sol       La      Re
Al bajarme de cada escenario. e---3-----------3---------|
                              B-----2-------2---2-----2-|
                              G-------3---3-------3-----|
                              D-0-------0-----------0---|
                              A-------------------------|
                              E-------------------------|
Tap to rate this tab
 
# A B C D E F G H I J K L M N O P Q R S T U V W X Y Z