Song name
# A B C D E F G H I J K L M N O P Q R S T U V W X Y Z

Lost And Found - Baby tab

this is 100% perfect tab so i hope you enjoy 
standrd tuning 

intro 

[-0/2-0---0/2-0---0/2-0---0-2-0-2h3-2-0-2-0---0/2-0---]
[-------3-------3-------3-------------------3-------3-]
[-----------------------------------------------------]
[-----------------------------------------------------]
[-----------------------------------------------------]
[-----------------------------------------------------]


verse 1: chords

D   A
BM  G
EM  A
D   A


chorus: chords

D   BM
G   EM    A
D   BM
G   A     D


verse 2

chorus

verse 3

chorus

verse 4 

chorus 

solo:

[-2-3-2-0--------------------------0-2-0--2-3-2-0---------------0-2-0---]
[--------3-2-3--0-2-3-0-2-3-0-2-3----------------3-2-3--0-2-3--------3--]
[-----------------------------------------------------------------------]
[-----------------------------------------------------------------------]
[-----------------------------------------------------------------------]
[-----------------------------------------------------------------------]

chorus

well that's it hope you like it 

from Ricky
Tap to rate this tab
 
# A B C D E F G H I J K L M N O P Q R S T U V W X Y Z