Song name
# A B C D E F G H I J K L M N O P Q R S T U V W X Y Z

Lostprophets - Everyday Combat tab

-----------------------------------------------------------------------
                       Everyday Combat - Lostprophets
-----------------------------------------------------------------------

Tabbed by: Stephen McFall
Email: smboo28@aim.com

Tuning: All guitars are in Drop D (DADGBE)


Intro Pt. 1 Gtr. 1 (Distortion + Compressor + plus an eq to boost highs and drop lows + 
else to create feedback lol)

First perform lots of feedback with a high Bb + C# mix finally resulting in a C# then 
this chord

E|-------------------------------------------------------------|
B|-------------------------------------------------------------|
G|6~~~~~~~~~~~-------------------------------------------------|
D|6~~~~~~~~~~~(let feedback from chord Ring on til intro pt. 3)|
A|4~~~~~~~~~~~-------------------------------------------------|
D|-------------------------------------------------------------|

Intro Pt. 2 Gtr. 2 (Overdrive) play 4x
E|--------------------------------|
B|--------------------------------|
G|--------------------------------|
D|--------------------------------|
A|-------2---2-4-2-------2-----2--|
D|12\4-4---4-------4-0-0---0-2---2|


Intro Pt. 3 Gtrs. 1 & 2 (Distortion) play 4x
E|--------------------------------|
B|--------------------------------|
G|--------------------------------|
D|--------------------------------|
A|-------2---2-4-2-------2-----2--|
D|---4-4---4-------4-0-0---0-2---2|


Pre-Verse\Verse Pt. 1 & 2 Gtr. 1 (Distortion) play 2x for pre-verse play 4x for Verse 1
E|-------------------------------------------------|
B|----5/7-7-7-------------------7-7-7-7-----5/7-7-7|
G|----x/x-x-x-----9/11-11-11----x-x-x-x-----x/x-x-x|
D|4-4-2/4-4-4-7-7-x/x--x--x-2-2-4-4-4-4-2-2-2/4-4-4|
A|4-4---------7-7-7/9--9--9-2-2---------2-2--------|
D|4-4---------7-7-----------2-2---------2-2--------|

Pre-Verse\Verse Pt. 1 Gtr. 2 (Distortion) play 2x for pre-verse play 2x for Verse 1
E|------------------------------------------------|
B|----7-7-7-7-----------------7-7-7-7-----7-7-7-7-|
G|----x-x-x-x-----11111111----x-x-x-x-----x-x-x-x-|
D|4-4-4-4-4-4-7-7-x-x-x-x-2-2-4-4-4-4-2-2-4-4-4-4-|
A|4-4---------7-7-9-9-9-9-2-2---------2-2---------|
D|4-4---------7-7---------2-2---------2-2---------|

Then
Verse Pt. 2 Gtr. 2 (Distortion) play 2x
E|-----------------------------------------------------------|
B|-----------------------------------------------------------|
G|-----------------------------------------------------------|
D|4--4-4-4-4-4-4-7--7-7-7-7-7-7-2--2-2-2-2-2-2-2--2-2-2-2-2-2|
A|4--4-4-4-4-4-4-7--7-7-7-7-7-7-2--2-2-2-2-2-2-2--2-2-2-2-2-2|
D|4--4-4-4-4-4-4-7--7-7-7-7-7-7-2--2-2-2-2-2-2-2--2-2-2-2-2-2|
PM   * * * * * *    * * * * * *    * * * * * * *  * * * * * *


Pre-Chorus Gtr. 1 (Distortion)
E|------------------------------------------------------------|
B|------------------------------------------------------------|
G|------------------------------------------------------------|
D|0--0-0-0-0-0-0-0--0-0-0-0-2-4-2--2-2-2-2-2-2-2--2-2-2-2-4-2-|
A|------------------------------------------------------------|
D|------------------------------------------------------------|

Then
E|-----------------------------------------------x-x-x-x-x-x|
B|-----------------------------------------------x-x-x-x-x-x|
G|-----------------------------------------------x-x-x-x-x-x|
D|0--0-0-0-0-0-0-0--0-0-0-0-2-4-2--2-2-2-2-2-2-2-x-x-x-x-x-x|
A|-----------------------------------------------x-x-x-x-x-x|
D|-----------------------------------------------x-x-x-x-x-x|


Pre-Chorus Gtr. 2 (Distortion) play 2x
E|-----------------------------------------------------------|
B|3--3-3-3-3-3-3-3--3-3-3-3-3-3-5--5-5-5-5-5-5-5--5-5-5-5-5-5|
G|2--2-2-2-2-2-2-2--2-2-2-2-2-2-4--4-4-4-4-4-4-4--4-4-4-4-4-4|
D|0--0-0-0-0-0-0-0--0-0-0-0-0-0-2--2-2-2-2-2-2-2--2-2-2-2-2-2|
A|0--0-0-0-0-0-0-0--0-0-0-0-0-0-2--2-2-2-2-2-2-2--2-2-2-2-2-2|
D|0--0-0-0-0-0-0-0--0-0-0-0-0-0-2--2-2-2-2-2-2-2--2-2-2-2-2-2|


Chorus Gtrs. 1 & 2 (Distortion) play 4x
E|----------------------------------------------------------|
B|----------------------------------------------------------|
G|---------------7--7-7-7-7-7-7-----------------------------|
D|4--4-4-4-4-4-4-7--7-7-7-7-7-7-2--2-2-2-2-2-2-7--7-7-6--6-6|
A|4--4-4-4-4-4-4-5--5-5-5-5-5-5-2--2-2-2-2-2-2-7--7-7-6--6-6|
D|4--4-4-4-4-4-4----------------2--2-2-2-2-2-2-7--7-7-6--6-6|

Post-Chorus Gtr. 1 (Distortion) play 4x
E|------------------------------|
B|------------------------------|
G|11-11111111111111111111119-9-9|
D|x--x-x-x-x-x-x-x-x-x-x-x-x-x-x|
A|9--9-9-9-9-9-9-9-9-9-9-9-7-7-7|
D|------------------------------|

Post-Chorus Gtr. 2 (Distortion) play 4x
E|-------------------------------|
B|-------------------------------|
G|-------------------------------|
D|-------------------------------|
A|-----2---2-4-2--------2-----2--|
D|4--4---4-------4--0-0---0-2---2|

Repeat Verse

Repeat Pre-Chorus

Repeat Chorus

Post-Chorus 2 Gtr. 1 (Distortion) play 2x
E|-------------|
B|-------------|
G|11------9-9-9|
D|x-(x29)-x-x-x|
A|9-------7-7-7|
D|-------------|

Post-Chorus 2 Gtr. 2 (Distortion) play 2x
E|----------------|
B|----------------|
G|----------------|
D|4~\-4~\-4~\-0-7-|
A|4~\-4~\-4~\-0-7-|
D|4~\-4~\-4~\-0-7-|

Pre-Solo Gtr. 2 (Distortion) play 4x
E|------------------------------|
B|------------------------------|
G|------------------------------|
D|------------------------------|
A|-----2---2-4-2-------2-----2--|
D|4--4---4-------4-0-0---0-2---2|


Guitar Solo Gtr. 2 (Distorted)
E|-----------------------------------------------------------|
B|-----------------------------------------------------------|
G|-----------------------------------------------------------|
D|4--4-4-4-4-4-4-7--7-7-7-7-7-7-9--9-9-9-9-9-9-7--7-7-7-7-7-7|
A|4--4-4-4-4-4-4-7--7-7-7-7-7-7-9--9-9-9-9-9-9-7--7-7-7-7-7-7|
D|4--4-4-4-4-4-4-7--7-7-7-7-7-7-9--9-9-9-9-9-9-7--7-7-7-7-7-7|

Then
E|---|
B|---|
G|---|
D|4~\|
A|4~\|
D|4~\|


GUITAR SOLO Gtr. 1 (Distorted)
This is Incredibly FAST!
2:57-2:59
E|-----------------------------------------------------------|
B|-----------------------------------------------------------|
G|--------------------131313------131313-141414-131313-141414|
D|161616-141414-161616------161616---------------------------|
A|-----------------------------------------------------------|
D|-----------------------------------------------------------|

2:59-3:00
E|------------------------------------------12--16p12h14p12------|
B|---------------------141414--------141414----------------h14p12|
G|161616-141414-161616--------161616-----------------------------|
D|---------------------------------------------------------------|
A|---------------------------------------------------------------|
D|---------------------------------------------------------------|

3:00-3:03
E|16p12h14p12------16p12h14p12/191919-161616-14-----------------------|
B|-----------h14p12----------------------------14~\\\-----------------|
G|--------------------------------------------------/16-14-13-14-13-11|
D|--------------------------------------------------------------------|
A|--------------------------------------------------------------------|
D|--------------------------------------------------------------------|


3:03-3:08
E|---------------------------------------------------|
B|--------------------------7------------------------|
G|/18-16-14-16-14-13\\\/4-6---6-4-2-4-2h4p2----------|
D|------------------------------------------4--2/4-4~|
A|-------------------------------------------4-------|
D|---------------------------------------------------|
PM                              * *


THIS IS  ALSO CRAZY INSANE FAST!!!
3:08-3:10
E|--------------------------------------------------------|
B|--------------------------------------------------------|
G|---------------------------------------------------11~\\|
D|7-6-4-6-9-7-6-7-11-9-7-9-7-6-4-6-9-7-6-7-11-9-7-9-------|
A|--------------------------------------------------------|
D|--------------------------------------------------------|


This is slower than previous line buy a good bit but still fast!
3:10-3:12
E|---4---------7---4--------------|
B|-------5-------------5---4------|
G|-6---6---6-6---6---6---------6~\|
D|--------------------------------|
A|--------------------------------|
D|--------------------------------|
PM     *             *


3:12-3:15
E|---9----------12-9--------------|
B|-------10-9---9--9-10-12-14-10-9|
G|-9---9-9--9-9------9-----9------|
D|--------------------------------|
A|--------------------------------|
D|--------------------------------|
PM *   *   (*)*     (*)   (*)
The parentheses around these stars means only PM note on G string
This is ONLY ONE guitar not 2 parts its just really hard

VERY FAST AGAIN
3:15-3:16
E|--------9-111211-9-11----------161716----16|
B|9-10-12-----------------16-17-19------19---|
G|-------------------------------------------|
D|-------------------------------------------|
A|-------------------------------------------|
D|-------------------------------------------|

VERY FAST ALSO
He messes around a lot with this last line but this is the real part
3:16-3:18
E|16--------16--------16-------------21~~~\\\|
B|--17h19p17--17h19p17---17h19p17\\----------|
G|-------------------------------------------|
D|-------------------------------------------|
A|-------------------------------------------|
D|-------------------------------------------|

Your welcome for the correct solo

Repeat Chorus

Post-Chorus 3 Gtr. 1 (Distorted) play 2x
E|-------------|
B|-------------|
G|11------9-9-9|
D|x-(x29)-x-x-x|
A|9-------7-7-7|
D|-------------|

Then end on
E|----|
B|----|
G|11~~|
D|x---|
A|9~~~|
D|----|


Post-Chorus 3 Gtr. 2 (Distorted) play 2x
E|----------------|
B|----------------|
G|----------------|
D|4~\-4~\-4~\-0-7-|
A|4~\-4~\-4~\-0-7-|
D|4~\-4~\-4~\-0-7-|

Then end on
E|------|
B|------|
G|------|
D|4~~~~~|
A|4~~~~~|
D|4~~~~~|
And let this ring to create a C# feedback note for Outro Pt. 1


Outro Pt. 1 & 2 Gtr. 1 (Overdrive) play 22x (I think… I was really zoning out while I 
counting)
E|-------------------------------|
B|5/7-7-10p7-10p7-5/7-7-12p7-12p7|
G|-------------------------------|
D|-------------------------------|
A|-------------------------------|
D|-------------------------------|


Outro Pt. 2 Gtr. 2 (Distortion)
E|-------------------------------------------------------------|
B|-------------------------------------------------------------|
G|-------------------------------------------------------------|
D|4--4-4-4-4-4-4-4-4-4-4-4-4-4-4-7--7-7-7-7-7-7-7-7-7-7-7-7-9-9|
A|4--4-4-4-4-4-4-4-4-4-4-4-4-4-4-7--7-7-7-7-7-7-7-7-7-7-7-7-9-9|
D|4--4-4-4-4-4-4-4-4-4-4-4-4-4-4-7--7-7-7-7-7-7-7-7-7-7-7-7-9-9|

Then
E|-------------------------------------------------------------|
B|-------------------------------------------------------------|
G|-------------------------------------------------------------|
D|0--0-0-0-0-0-0-0-0-0-0-0-0-0-0-2--2-2-2-2-2-2-2-2-2-2-2-2-2-2|
A|0--0-0-0-0-0-0-0-0-0-0-0-0-0-0-2--2-2-2-2-2-2-2-2-2-2-2-2-2-2|
D|0--0-0-0-0-0-0-0-0-0-0-0-0-0-0-2--2-2-2-2-2-2-2-2-2-2-2-2-2-2|

Then
E|-------------------------------------------------------------|
B|-------------------------------------------------------------|
G|-------------------------------------------------------------|
D|4--4-4-4-4-4-4-4-4-4-4-4-4-4-4-7--7-7-7-7-7-7-7-7-7-7-7-7-9-9|
A|4--4-4-4-4-4-4-4-4-4-4-4-4-4-4-7--7-7-7-7-7-7-7-7-7-7-7-7-9-9|
D|4--4-4-4-4-4-4-4-4-4-4-4-4-4-4-7--7-7-7-7-7-7-7-7-7-7-7-7-9-9|

Then
E|-------------------------------------------------------------|
B|-------------------------------------------------------------|
G|-------------------------------------------------------------|
D|0--0-0-0-0-0-0-0-0-0-0-0-0-0-0-2--2-2-2-2-2-2-2-2-2-2-2-2-2-2|
A|0--0-0-0-0-0-0-0-0-0-0-0-0-0-0-2--2-2-2-2-2-2-2-2-2-2-2-2-2-2|
D|0--0-0-0-0-0-0-0-0-0-0-0-0-0-0-2--2-2-2-2-2-2-2-2-2-2-2-2-2-2|

Outro Pt. 3 Gtr. 1 (Distorted)
E|-------------------------------------------------|
B|----5/7-7-7-------------------7-7-7-7-----5/7-7-7|
G|----x/x-x-x-----9/11-11-11----x-x-x-x-----x/x-x-x|
D|4-4-2/4-4-4-7-7-x/x--x--x-2-2-4-4-4-4-2-2-2/4-4-4|
A|4-4---------7-7-7/9--9--9-2-2---------2-2--------|
D|4-4---------7-7-----------2-2---------2-2--------|

Then end on
E|---|
B|---|
G|---|
D|4\\|
A|4\\|
D|4\\|


Outro Pt. 3 Gtr. 2 (Distorted)
E|------------------------------------------------|
B|----7-7-7-7-----------------7-7-7-7-----7-7-7-7-|
G|----x-x-x-x-----11111111----x-x-x-x-----x-x-x-x-|
D|4-4-4-4-4-4-7-7-x-x-x-x-2-2-4-4-4-4-2-2-4-4-4-4-|
A|4-4---------7-7-9-9-9-9-2-2---------2-2---------|
D|4-4---------7-7---------2-2---------2-2---------|

Then end on
E|---|
B|---|
G|---|
D|4\\|
A|4\\|
D|4\\|

That’s all!
Thank you very much
PLEASE RATE!!!
If you have any fixes email them to me at smboo28@aim.com
Tap to rate this tab
# A B C D E F G H I J K L M N O P Q R S T U V W X Y Z