Song name
# A B C D E F G H I J K L M N O P Q R S T U V W X Y Z

Lostprophets - Need You Tonight tab

Main Riff (guitar 2)
|--8---8---8-----|-11-11-11-11-10-10-10-8----|
|--8---8---8-----|-11-11-11-11-10-10-10-8----|
|--9---9---9-----|-12-12-12-12-10-10-10-9----|
|----------------|---------------------------|
|----------------|---------------------------|
|----------------|---------------------------|

Verse/intro/chorus (slight PM guitar1)
|----------------------|---------------------|
|----------------------|---------------------|
|--5-7-8-7-5-7-8-7-7---|---------------------|
|----------------------|---------------------|
|----------------------|---------------------|
|----------------------|---------------------|

Chorus (guitar 2)
|--8-8-8-8-8-----------|---------------------|
|--8-8-8-8-8-----------|---------------------|
|--9-9-9-9-9-----------|---------------------|
|----------------------|---------------------|
|----------------------|---------------------|
|----------------------|---------------------|
Tap to rate this tab
# A B C D E F G H I J K L M N O P Q R S T U V W X Y Z