Guitaretab - guitar tabs
Song name
# A B C D E F G H I J K L M N O P Q R S T U V W X Y Z

Lostprophets - Lucky You tab

This is a re-corrected version based on my last (ancient) lucky you tab.

Lostprophets - Lucky You
Tabbed BY: Will Sharp
Tuning : DADGBE
Email: chimaira_tool@hotmail.com

This is all my own work, was a bitch to count the number of times 
stuff was played.  Any comments email me.  Its about 99% correct.


Verse
Guitar 1: (clean)
	: Constantly play the A string in this riff so the riff is CONSTANTLY PLAYED.  
	  Don't pick the slides, let the slides make the noise.  Also the 2 power chords
	  next to each other will sound like they are 'slid' between.
        
	  Also a possibility is as the riff continues the low D string might be played
	  constantly too (but it is fretted on the 3rd fret with the A string)

 |    INTRO    |		  x2						       x2
E|-------------|-------------------|---------------------|-----------|------------------|
B|-------------|-------------------|---------------------|-----------|------------------|
G|-------------|-------------------|---------------------|-----------|------------------|
D|-------------|----------------5--|----------------5-7--|--------5--|---------------5--|
A|--3-3-3-3-3--|--3-5-5h7-7-7-3-3--|--3-5-5h7-7-7-3-3-5--|--7-7-3-3--|-3-5-5h7-7-7-3-3--|
D|-------------|-------------------|---------------------|-----------|------------------|

				  		     x2
E|---------------------|-----------|------------------|---------------------|-----------|
B|---------------------|-----------|------------------|---------------------|-----------|
G|---------------------|-----------|------------------|---------------------|-----------|
D|----------------5-7--|--------5--|---------------5--|----------------5-7--|--------5--|
A|--3-5-5h7-7-7-3-3-5--|--7-7-3-3--|-3-5-5h7-7-7-3-3--|--3-5-5h7-7-7-3-3-5--|--7-7-3-3--|
D|---------------------|-----------|------------------|---------------------|-----------|

		    x2
E|-------------------|------------------------------|
B|-------------------|------------------------------|
G|-------------------|------------------------------|
D|----------------5--|------------------------------|
A|--3-5-5h7-7-7-3-3--|-3-5-5h7-7-7-7\3-3-3-3/5-5-5--|
D|-------------------|------------------------------|

When you have played this through, go back to the beginning but REPLACE the 'INTRO' with
an extra "--3-5-5h7-7-7-3-3--" riff so you play 3 repeats of that riff rather than 2.

Once the riff has been repeated 2 an a half times, Guitar 1 goes into chorus.


Verse
Guitar 2: plays this to start and over the top of Guitar 1.
The chords played that ring are with distortion on.
E|---------------------------------------------------------|
B|---------------------------------------------------------|
G|---------5---------------5---------------5---------------|
D|-3-3-3-3-5-3-3-3-3-3-3-3-5-3-3-3-3-3-3-3-5-3-3-3-3-3-3-3-|
A|-3-3-3-3-3-3-3-3-3-3-3-3-3-3-3-3-3-3-3-3-3-3-3-3-3-3-3-3-|
D|-3-3-3-3---3-3-3-3-3-3-3---3-3-3-3-3-3-3---3-3-3-3-3-3-3-|

                                             ("Hey I see the..")   
E|---------------------------------------------------------|
B|---------------------------------------------------------|
G|5-5-5--5~---------5~-------------------5~----------------|
D|5-5-5--3~---------5~-------------------3~----------------|
A|3-3-3--3~---------3~-------------------3~----------------|
D|-------3~------------------------------3~----------------|

					     ("Maybe this time..")
E|---------------------------------------------------------|
B|---------------------------------------------------------|
G|-5-5--5~----------5~-------------------5~----------------|
D|-5-5--5~----------3~-------------------5~----------------|
A|-3-3--3~----------3~-------------------3~----------------|
D|------3~-------------------------------3~----------------|

					    ("Todays the day..")
E|---------------------0~----------------------------------|
B|--------------------(5~)---------------------------------|
G|-5-5--5~---------5~--------------------5~----------------|
D|-5-5--3~---------5~--------------------3~----------------|
A|-3-3--3~---------3~--------------------3~----------------|
D|------3~-------------------------------3~----------------|

					    ("But if you don't..")
E|---------------------------------------------------------|
B|---------------------------------------------------------|
G|-5-5--5~--------(5~)-------------------5~----------------|
D|-5-5--3~--------(5~)-------------------5~----------------|
A|-3-3--3~--------(3~)-------------------3~----------------|
D|------3~-------------------------------3~----------------|

E|---------------------------------------------------------|
B|---------------------------------------------------------|
G|-5-5--5~---------5~--------------------------------------|
D|-5-5--5~---------5~--------------------------------------|
A|-3-3--3~---------3~--------------------------------------|
D|------3~-------------------------------------------------|


Chorus:
Both Guitars
(notes in brackets can be played to keep timing right if 
 wanted)
E|---------------------------------------------------------|
B|---------------------------------------------------------|
G|---------5-5-5-5/7-7-7-7/9-9-9-9--3-(3-3)--7-7-7-7/9-9-9-|
D|-3-(3)---X-X-X-X/X-X-X-X/X-X-X-X--3-(3-3)--X-X-X-X/X-X-X-|
A|-3-(3)---3-3-3-3/5-5-5-5/7-7-7-7--1-(1-1)--5-5-5-5/7-7-7-|
D|-3-(3)---------------------------------------------------|

E|---------------------------------------------------------|
B|---------------------------------------------------------|
G|9/10-10-10-10--5-(5-5)--9-9-9-9/10-10-10-10/12-12-12-12--|
D|X/X--X--X--X---5-(5-5)--X-X-X-X/X--X--X--X-/X--X--X--X---|
A|7/8--8--8--8---3-(3-3)--7-7-7-7/8--8--8--8-/10-10-10-10--|
D|---------------------------------------------------------|

E|---------------------------------------------------------|
B|---------------------------------------------------------|
G|-----------------------------5-5-5-5-5-5-5-5-5-5---------|
D|-0-0-2-2-3-3-3-3-3-3-3-3~----5-5-5-5-5-5-5-5-5-5----0-0-2|
A|-0-0-2-2-3-3-3-3-3-3-3-3~----3-3-3-3-3-3-3-3-3-3----0-0-2|
D|-0-0-2-2-3-3-3-3-3-3-3-3~---------------------------0-0-2|

E|---------------------------------------------------------|
B|---------------------------------------------------------|
G|----------------------5-5-5-5-5-5-5-5-5-5----------------|
D|-2-3-3-3-3-3-3-3-3~---5-5-5-5-5-5-5-5-5-5----0-0-2-2-3-3-|
A|-2-3-3-3-3-3-3-3-3~---3-3-3-3-3-3-3-3-3-3----0-0-2-2-3-3-|
D|-2-3-3-3-3-3-3-3-3~--------------------------0-0-2-2-3-3-|

E|---------------------------------------------------------|
B|--(Guitar 2 only-3/12~)----------------------------------|
G|-----------------/5~-------------------------------------|
D|-3-3-3-3-3-3~----/5~-------------------------------------|
A|-3-3-3-3-3-3~----/3~-------------------------------------|
D|-3-3-3-3-3-3~--------------------------------------------|

Verse:
Guitar 1 then plays its riff from beginning while Guitar 2
also plays but quieter (Guitar 2 is actually playing on the 
same channel as Guitar 1).

Chorus is then repeated.

Bridge:
Guitar 1: (distortion and palm muted)
(note the couplets with 4 spaces instead of 3 between them)
E|---------------------------------------------------------|
B|---------------------------------------------------------|
G|---------------------------------------------------------|
D|-0-0---0-0---0-0---0-0----0-0----------------------------|
A|-0-0---0-0---0-0---0-0----0-0----------------------------|
D|-0-0---0-0---0-0---0-0----0-0----------------------------|

Both Guitars:
(distorted an palm muted)
E|---------------------------------------------------------|
B|---------------------------------------------------------|
G|---------------------------------------------------------|
D|-0-0---0-0---0-0---0-0----2-2---3-3---3-3---3-3---3-3----|
A|-0-0---0-0---0-0---0-0----2-2---3-3---3-3---3-3---3-3----|
D|-0-0---0-0---0-0---0-0----2-2---3-3---3-3---3-3---3-3----|

E|---------------------------------------------------------|
B|---------------------------------------------------------|
G|---------------------------------------------------------|
D|3-3----3-3---3-3---3-3---3-3----3-3----0-0-0---0-0---0-0-|
A|3-3----3-3---3-3---3-3---3-3----3-3----0-0-0---0-0---0-0-|
D|3-3----3-3---3-3---3-3---3-3----3-3----0-0-0---0-0---0-0-|
[ Tab from: http://www.guitaretab.com/l/lostprophets/132260.html ]
E|---------------------------------------------------------|
B|---------------------------------------------------------|
G|---------------------------------------------------------|
D|--0-0---0-0----0-0-0---0-0---0-0---0-0---2-2---3-3---3-3-|
A|--0-0---0-0----0-0-0---0-0---0-0---0-0---2-2---3-3---3-3-|
D|--0-0---0-0----0-0-0---0-0---0-0---0-0---2-2---3-3---3-3-|

E|---------------------------------------------------------|
B|---------------------------------------------------------|
G|---------------------------------------------------------|
D|--3-3---3-3----3-3----3-3---3-3---3-3---3-3----3-3----0-0|
A|--3-3---3-3----3-3----3-3---3-3---3-3---3-3----3-3----0-0|
D|--3-3---3-3----3-3----3-3---3-3---3-3---3-3----3-3----0-0|

E|---------------------------------------------------------|
B|---------------------------------------------------------|
G|---------------------------------------------------------|
D|-0---0-0---0-0---0-0---0-0----0-0-0---0-0---0-0---0-0---2|
A|-0---0-0---0-0---0-0---0-0----0-0-0---0-0---0-0---0-0---2|
D|-0---0-0---0-0---0-0---0-0----0-0-0---0-0---0-0---0-0---2|

E|---------------------------------------------------------|
B|---------------------------------------------------------|
G|---------------------------------------------------------|
D|-2---3-3---3-3---3-3---3-3----3-3----3-3---3-3---3-3---3-|
A|-2---3-3---3-3---3-3---3-3----3-3----3-3---3-3---3-3---3-|
D|-2---3-3---3-3---3-3---3-3----3-3----3-3---3-3---3-3---3-|

E|---------------------------------------------------------|
B|---------------------------------------------------------|
G|---------------------------------------------------------|
D|3----3-3-------------------------------------------------|
A|3----3-3-------------------------------------------------|
D|3----3-3-------------------------------------------------|

The keyboard overlay over this is this:
E|-----------------------------------------------------------------------|
B|-----------------------------------------------------------------------|
G|-----------------------------------------------------------------------|
D|--2~/3-----------------------------------------------------------------|
A|--------9--5--7--9--5--7--10~--3~----9--5--7--9--5--7--10--10b11-11r10-|
D|-----------------------------------------------------------------------|

Guitar 1 then plays this clean:
E|--5-5-5-5-5-5-5-5-5-5-5-5--------------------------------|
B|--3-3-3-3-3-3-3-3-3-3-3-3--------------------------------|
G|--0-0-0-0-0-0-0-0-0-0-0-0--------------------------------|
D|--4-4-4-4-4-4-4-4-4-4-4-4--------------------------------|
A|--5-5-5-5-5-5-5-5-5-5-5-5--------------------------------|
D|---------------------------------------------------------|


Verse:
Both Guitars (slightly distorted)
E|---------------------------------------------------------|
B|---------------------------------------------------------|
G|---------------------------------------------5-5-5-5-5-5-|
D|-0-0-0-0-0-0-0-0-0-0h2--3-3-3-3-3-3-3-3-3-3--5-5-5-5-5-5-|
A|-0-0-0-0-0-0-0-0-0-0h2--3-3-3-3-3-3-3-3-3-3--3-3-3-3-3-3-|
D|-0-0-0-0-0-0-0-0-0-0h2--3-3-3-3-3-3-3-3-3-3--------------|

E|---------------------------------------------------------|
B|---------------------------------------------------------|
G|-5-5-5--5-5-5-5-5-5-5-5-5-5------------------------------|
D|-5-5-5--3-3-3-3-3-3-3-3-3-3---0-0-0-0-0-0-0-0-0-0h2--3-3-|
A|-3-3-3--3-3-3-3-3-3-3-3-3-3---0-0-0-0-0-0-0-0-0-0h2--3-3-|
D|--------3-3-3-3-3-3-3-3-3-3---0-0-0-0-0-0-0-0-0-0h2--3-3-|

E|---------------------------------------------------------|
B|---------------------------------------------------------|
G|-----------------5-5-5-5-5-5-5-5-5--5-5-5-5-5-5-5-5-5-5--|
D|3-3-3-3-3-3-3-3--5-5-5-5-5-5-5-5-5--3-3-3-3-3-3-3-3-3-3--|
A|3-3-3-3-3-3-3-3--3-3-3-3-3-3-3-3-3--3-3-3-3-3-3-3-3-3-3--|
D|3-3-3-3-3-3-3-3---------------------3-3-3-3-3-3-3-3-3-3--|

E|---------------------------------------------------------|
B|---------------------------------------------------------|
G|----------------------------------------------------5-5-5|
D|-0-0---0-0---0-0---0-0---0h2---3-3-3-3-3-3-3-3-3-3--5-5-5|
A|-0-0---0-0---0-0---0-0---0h2---3-3-3-3-3-3-3-3-3-3--3-3-3|
D|-0-0---0-0---0-0---0-0---0h2---3-3-3-3-3-3-3-3-3-3-------|

E|---------------------------------------------------------|
B|---------------------------------------------------------|
G|-5-5-5-5-5------5-5-5-5-5-5------------------------------|
D|-5-5-5-5-5-5/7--5-5-5-5-5-5------------------------------|
A|-3-3-3-3-3-3/5--3-3-3-3-3-3------------------------------|
D|---------------------------------------------------------|


Guitar 1 then plays this until Guitar 2 reaches the palm muted
open strings an joins in with them:
E|-0-0-0-0-0-0-0-0-0-0-0-0-0-0-0---------------------------|
B|-5-5-5-5-5-5-5-5-5-5-5-5-5-5-5---------------------------|
G|-5-5-5-5-5-5-5-5-5-5-5-5-5-5-5---------------------------|
D|-5-5-5-5-5-5-5-5-5-5-5-5-5-5-5---------------------------|
A|-3-3-3-3-3-3-3-3-3-3-3-3-3-3-3---------------------------|
D|---------------------------------------------------------|


Guitar 2 carries on with this riff:
E|---------------------------------------------------------|
B|---------------------------------------------------------|
G|---------------------------------------------5-5-5-5-5-5-|
D|-0-0-0-0-0-0-0-0-0-0h2--3-3-3-3-3-3-3-3-3-3--5-5-5-5-5-5-|
A|-0-0-0-0-0-0-0-0-0-0h2--3-3-3-3-3-3-3-3-3-3--3-3-3-3-3-3-|
D|-0-0-0-0-0-0-0-0-0-0h2--3-3-3-3-3-3-3-3-3-3--------------|

E|---------------------------------------------------------|
B|---------------------------------------------------------|
G|-5-5-5--5-5-5-5-5-5-5-5-5-5------------------------------|
D|-5-5-5--3-3-3-3-3-3-3-3-3-3---0-0---0h2---3-3-3-3----0-0-|
A|-3-3-3--3-3-3-3-3-3-3-3-3-3---0-0---0h2---3-3-3-3----0-0-|
D|--------3-3-3-3-3-3-3-3-3-3---0-0---0h2---3-3-3-3----0-0-|
			      |       Both Guitars

E|---------------------------------------------------------|
B|---------------------------------------------------------|
G|---------------------------------------------------------|
D|--0h2---3-3-3-3------------------------------------------|
A|--0h2---3-3-3-3------------------------------------------|
D|--0h2---3-3-3-3------------------------------------------|


ENDING:		  |

Guitar 2 plays these quite quietly:
E|---------------------------------------------------------|
B|---------------------------------------------------------|
G|--/12~--------------12\10~-------------\2~---------------|
D|---------------------------------------------------------|
A|---------------------------------------------------------|
D|---------------------------------------------------------|


Guitar 1:
         		x3					   x3
E|----------------------|--------------------|----------------------|
B|----------------------|--------------------|----------------------|
G|----------------------|--------------------|----------------------|
D|---------------5-5-5--|---------------5/7--|---------------5-5-5--|
A|-3-5-5h7-7-7-3-3-3-3--|-3-5-5h7-7-7-3-3/5--|-3-5-5h7-7-7-3-3-3-3--|
D|----------------------|--------------------|----------------------|

					     x3
E|--------------------|-----------------------|---------------------|
B|--------------------|-----------------------|---------------------|
G|--------------------|-----------------------|---------------------|
D|---------------5/7--|----------------5-5-5--|----------------5/7--|
A|-3-5-5h7-7-7-3-3/5--|--3-5-5h7-7-7-3-3-3-3--|--3-5-5h7-7-7-3-3/5--|
D|--------------------|-----------------------|---------------------|

         		x3
E|----------------------|-------------------------------------------|
B|----------------------|-------------------------------------------|
G|----------------------|---------------------5~--------------------|
D|---------------5-5-5--|---------------5/7~--5~--------------------|
A|-3-5-5h7-7-7-3-3-3-3--|-3-5-5h7-7-7-3-3/5~--3~--------------------|
D|----------------------|-------------------------------------------|


Guitar 1 then plays this to end:
(Guitar 2 has stopped the sliding part an doesnt play 
anymore)				  	          X4
E|---------------------------------------------------------|
B|---------------------------------------------------------|
G|--9~---10~-----------------------------------------------|
D|--X~---X~---7~-------------------------------------------|
A|--7~---8~---7~-------------------------------------------|
D|------------7~-------------------------------------------|

Thats it.  Ending is the best part - one of lostprophets best
endings. enjoy 





Related for Lucky You tab