Song name
# A B C D E F G H I J K L M N O P Q R S T U V W X Y Z

Lostprophets - Shinobi Vs Dragon Ninja tab

1|--------------------------------------------|
2|--------------------------------------------|
3|--------------------------------------------|
4|--------------------------------------------|
5|------8\7--------8\7--------8\7---------8\7-|
6|-0-0-------0-0-0------0-0-0-----0-0-0-0-----|

1|--------------------------------------------|
2|--------------------------------------------|
3|--------0---------0---------0---------0-----|
4|--------5---------5---------5---------5-----|
5|--------------------------------------------|
6|-3-3-3-----3-3-3-----5-5-5-----5-5-5--------|

1|----------------------------------------------------|
2|----------------------------------------------------|
3|----------------------------------------------------|
4|-0-0--15-14--0-0-0-15-14--0-0-0-15-14-0-0-0-0-15-14-|
5|-0-0--15-14--0-0-0-15-14--0-0-0-15-14-0-0-0-0-15-14-|
6|-0-0--15-14--0-0-0-15-14--0-0-0-15-14-0-0-0-0-15-14-|
1|--------------------------------------------|
2|----------------------------8---------8-----|
3|--------0---------0---------0---------0-----|
4|--------5---------5---------5---------5-----|
5|-3-3-3-----3-3-3-----5-5-5-----5-5-5--------|
6|-3-3-3-----3-3-3-----5-5-5-----5-5-5--------|
1|----------------------------------------------------|
2|----------------------------------------------------|
3|----------------------------------------------------|
4|-0-0--15-14--0-0-0-15-14--0-0-0-15-14-0-0-0-0-15-14-|
5|-0-0--15-14--0-0-0-15-14--0-0-0-15-14-0-0-0-0-15-14-|
6|-0-0--15-14--0-0-0-15-14--0-0-0-15-14-0-0-0-0-15-14-|
1|--------------------------------------------|
2|----------------------------8---------8-----|
3|--------0---------0---------0---------0-----|
4|--------5---------5---------5---------5-----|
5|-3-3-3-----3-3-3-----5-5-5-----5-5-5--------|
6|-3-3-3-----3-3-3-----5-5-5-----5-5-5--------|

1|-----------------|-----------------|-----------------|-----------------|
2|-----------------|-----------------|-----------------|-----------------|
3|-----------------|-----------------|-----------------|-----------------|
4|-0-0-0-0-0-0-0-0-|-0-0-0-0-0-0-0-0-|-3-3-3-3-3-3-3-3-|-2-2-2-2-3-2-2-2-|
5|-0-0-0-0-0-0-0-0-|-0-0-0-0-0-0-0-0-|-3-3-3-3-3-3-3-3-|-2-2-2-2-3-2-2-2-|
6|-0-0-0-0-0-0-0-0-|-0-0-0-0-0-0-0-0-|-3-3-3-3-3-3-3-3-|-2-2-2-2-3-2-2-2-|
  |------P.M------| |------P.M------| |------P.M------| |------P.M------|

1|-----------------|-----------------|-----------------|-----------------|
2|-----------------|-----------------|-----------------|-----------------|
3|-----------------|-----------------|-----------------|-----------------|
4|-0-0-0-0-0-0-0-0-|-0-0-0-0-0-0-0-0-|-3-3-3-3-3-3-3-3-|-2-2-2-2-3-2-2-2-|
5|-0-0-0-0-0-0-0-0-|-0-0-0-0-0-0-0-0-|-3-3-3-3-3-3-3-3-|-2-2-2-2-3-2-2-2-|
6|-0-0-0-0-0-0-0-0-|-0-0-0-0-0-0-0-0-|-3-3-3-3-3-3-3-3-|-2-2-2-2-3-2-2-2-|
  |------P.M------| |------P.M------| |------P.M------| |------P.M------|

1|-------------------------------------|-------------------------------------|
2|-------------------------------------|-------------------------------------|
3|-10----10----10----10----10----10----|-10----14----10----10----10----------|
4|----10----10----10----12----12----12-|-------------------------------------|
5|-------------------------------------|----10----10----10----8-----8--------|
6|-------------------------------------|--------------------------------10---|

1|-------------------------------------|-------------------------------------|
2|-------------------------------------|-------------------------------------|
3|-10----10----10----10----10----10----|-14----14----14----14----14----14----|
4|----10----10----10----12----12----12-|----15----15----15----15----15----15-|
5|-------------------------------------|-------------------------------------|
6|-------------------------------------|-------------------------------------|

1|----------------------------------------------------|
2|----------------------------------------------------|
3|----------------------------------------------------|
4|-0-0--15-14--0-0-0-15-14--0-0-0-15-14-0-0-0-0-15-14-|
5|-0-0--15-14--0-0-0-15-14--0-0-0-15-14-0-0-0-0-15-14-|
6|-0-0--15-14--0-0-0-15-14--0-0-0-15-14-0-0-0-0-15-14-|
1|--------------------------------------------|
2|----------------------------8---------8-----|
3|--------0---------0---------0---------0-----|
4|--------5---------5---------5---------5-----|
5|-3-3-3-----3-3-3-----5-5-5-----5-5-5--------|
6|-3-3-3-----3-3-3-----5-5-5-----5-5-5--------|
1|----------------------------------------------------|
2|----------------------------------------------------|
3|----------------------------------------------------|
4|-0-0--15-14--0-0-0-15-14--0-0-0-15-14-0-0-0-0-15-14-|
5|-0-0--15-14--0-0-0-15-14--0-0-0-15-14-0-0-0-0-15-14-|
6|-0-0--15-14--0-0-0-15-14--0-0-0-15-14-0-0-0-0-15-14-|
1|--------------------------------------------|
2|----------------------------8---------8-----|
3|--------0---------0---------0---------0-----|
4|--------5---------5---------5---------5-----|
5|-3-3-3-----3-3-3-----5-5-5-----5-5-5--------|
6|-3-3-3-----3-3-3-----5-5-5-----5-5-5--------|

1|-----------------|-----------------|-----------------|-----------------|
2|-----------------|-----------------|-----------------|-----------------|
3|-----------------|-----------------|-----------------|-----------------|
4|-0-0-0-0-0-0-0-0-|-0-0-0-0-0-0-0-0-|-3-3-3-3-3-3-3-3-|-2-2-2-2-3-2-2-2-|
5|-0-0-0-0-0-0-0-0-|-0-0-0-0-0-0-0-0-|-3-3-3-3-3-3-3-3-|-2-2-2-2-3-2-2-2-|
6|-0-0-0-0-0-0-0-0-|-0-0-0-0-0-0-0-0-|-3-3-3-3-3-3-3-3-|-2-2-2-2-3-2-2-2-|
  |------P.M------| |------P.M------| |------P.M------| |------P.M------|
1|-----------------|-----------------|-----------------|-----------------|
2|-----------------|-----------------|-----------------|-----------------|
3|-----------------|-----------------|-----------------|-----------------|
4|-0-0-0-0-0-0-0-0-|-0-0-0-0-0-0-0-0-|-3-3-3-3-3-3-3-3-|-2-2-2-2-3-2-2-2-|
5|-0-0-0-0-0-0-0-0-|-0-0-0-0-0-0-0-0-|-3-3-3-3-3-3-3-3-|-2-2-2-2-3-2-2-2-|
6|-0-0-0-0-0-0-0-0-|-0-0-0-0-0-0-0-0-|-3-3-3-3-3-3-3-3-|-2-2-2-2-3-2-2-2-|
  |------P.M------| |------P.M------| |------P.M------| |------P.M------|

1|-------------------------------------|-------------------------------------|
2|-------------------------------------|-------------------------------------|
3|-10----10----10----10----10----10----|-10----14----10----10----10----------|
4|----10----10----10----12----12----12-|-------------------------------------|
5|-------------------------------------|----10----10----10----8-----8--------|
6|-------------------------------------|--------------------------------10---|

1|-------------------------------------|-------------------------------------|
2|-------------------------------------|-------------------------------------|
3|-10----10----10----10----10----10----|-14----14----14----14----14----14----|
4|----10----10----10----12----12----12-|----15----15----15----15----15----15-|
5|-------------------------------------|-------------------------------------|
6|-------------------------------------|-------------------------------------|


1|----------------------------------------------------|
2|----------------------------------------------------|
3|----------------------------------------------------|
4|-0-0--15-14--0-0-0-15-14--0-0-0-15-14-0-0-0-0-15-14-|
5|-0-0--15-14--0-0-0-15-14--0-0-0-15-14-0-0-0-0-15-14-|
6|-0-0--15-14--0-0-0-15-14--0-0-0-15-14-0-0-0-0-15-14-|
1|--------------------------------------------|
2|----------------------------8---------8-----|
3|--------0---------0---------0---------0-----|
4|--------5---------5---------5---------5-----|
5|-3-3-3-----3-3-3-----5-5-5-----5-5-5--------|
6|-3-3-3-----3-3-3-----5-5-5-----5-5-5--------|
1|----------------------------------------------------|
2|----------------------------------------------------|
3|----------------------------------------------------|
4|-0-0--15-14--0-0-0-15-14--0-0-0-15-14-0-0-0-0-15-14-|
5|-0-0--15-14--0-0-0-15-14--0-0-0-15-14-0-0-0-0-15-14-|
6|-0-0--15-14--0-0-0-15-14--0-0-0-15-14-0-0-0-0-15-14-|
1|--------------------------------------------|
2|----------------------------8---------8-----|
3|--------0---------0---------0---------0-----|
4|--------5---------5---------5---------5-----|
5|-3-3-3-----3-3-3-----5-5-5-----5-5-5--------|
6|-3-3-3-----3-3-3-----5-5-5-----5-5-5--------|

1|-----|-----|-----|-----|-----|---(PLAY-7X)-|-------|
2|-----|-----|-----|-----|-----|-------------|-------|
3|-----|-----|-----|-----|-----|-------------|-------|
4|--8--|--0--|--8--|--0--|--8--|-------------|--X-X--|(BREAKDOWN)
5|--8--|--0--|--8--|--0--|--8--|-------------|--X-X--|
6|--8--|--0--|--8--|--0--|--8--|-0-0-0-0-0-0-|--X-X--|
             
1|-------------------------------------|(second guitar plays this after
2|-------------------------------------| third bar of Breakdown)
3|-10----10----10----10----10----10----|
4|----10----10----10----10----10----10-|
5|-------------------------------------|
6|-------------------------------------|



1|-----------------------| 
2|-----------------------|
3|-----------------------|
4|--0-0--3\2--0-0-0-3\2--|  (OUTRO)PLAY EIGHT TIMES
5|--0-0--3\2--0-0-0-3\2--|
6|--0-0--3\2--0-0-0-3\2--|

6|-----5\4\3\2-----| (SECOND GUITAR PLAYS THESE HARMONICS DURING OUTRO)

1|-----------------|
2|-----------------|
3|-----------------|
4|-0-0-0-0-0-0-0-0-| END OF SONG
5|-0-0-0-0-0-0-0-0-|
6|-0-0-0-0-0-0-0-0-|
  |------P.M------|




Tap to rate this tab
# A B C D E F G H I J K L M N O P Q R S T U V W X Y Z