Song name
# A B C D E F G H I J K L M N O P Q R S T U V W X Y Z

Lostprophets - On A Rope tab

Help us improve GuitareTab! Take a short survey!
I just made it while listening to the song, so i'm not sure it's really accurate. Plus 
my first tab, so it makes it more uncertain... :s
Sorry for the fans...

Artist : Lostprophets
Song : On a rope
Album : Liberation Transmission

Tuning : Drop-D (eBGDAD)

I hesitated for the tuning, between Drop-C & Drop-D, but the second one sounded better.

Intro

guitar 1
e|------------------------|------------------------------------|
B|------------------------|------------------------------------|
G|------------------------|------------------------------------|
D|-4--4-2-4--4-2-4--4-2-4-|-4*4*4*-4*4*4*-4*4*4*-4*4*4*-4*4*4*-|
A|-4--4-2-4--4-2-4--4-2-4-|-4*4*4*-4*4*4*-4*4*4*-4*4*4*-4*4*4*-|
D|-4--4-2-4--4-2-4--4-2-4-|-4*4*4*-4*4*4*-4*4*4*-4*4*4*-4*4*4*-|

guitar 1 & 2
e|----------------------|
B|----------------------|
G|----------------------|
D|-4-2-4--4-2-4-7-4-2-4-|
A|-4-2-4--4-2-4-7-4-2-4-|
D|-4-2-4--4-2-4-7-4-2-4-|

e|-----------------------------|
B|-----------------------------|
G|-----------------------------|
D|-4-2-4--4-2-4--4-2-4-7-4-2-4-|
A|-4-2-4--4-2-4--4-2-4-7-4-2-4-|
D|-4-2-4--4-2-4--4-2-4-7-4-2-4-|x3

Verse

guitar 1&2

e|-----------------------------|
B|-----------------------------|
G|-----------------------------|
D|-4-2-4--4-2-4--4-2-4-7-4-2-4-|
A|-4-2-4--4-2-4--4-2-4-7-4-2-4-|
D|-4-2-4--4-2-4--4-2-4-7-4-2-4-|x4

I wasn't able to figure out the chorus (i'm truly sorry).
But the riff i tabbed is played in the whole song... Almost
And then for the solo and the pre-solo... Well if i wasn't able to find out the chorus, 
solo is very aproximative...

Solo

e|----------------------|-------------------------------------------------|
B|----------------------|-------------------------------------------------|
G|----------------------|-------------------------------------------------|
D|-6h8/15-6h8/15-6h8/15-|-10-11-13-15-16-15-13-15-10-11-13-15-13-11-10-11-|
A|----------------------|-------------------------------------------------|
D|----------------------|-------------------------------------------------|

e|--------------------------------|
B|--------------------------------|
G|--------------------------------|
D|-10-11-13-15-16-15-13-15-10-11\-|
A|--------------------------------|
D|--------------------------------|

(play each note several times)

Outro

Same as a verse.

That's it. I'm really sorry i couldn't be able to tab chorus and stuff.
Related for On A Rope tab