Song name
# A B C D E F G H I J K L M N O P Q R S T U V W X Y Z

Lou Reed And Metallica - The View tab

Tuning: Drop D (DADGBE)

The first released song on the Lou Reed & Metallica collaboration album Lulu.
http://loureedmetallica.com/

If you find any mistakes, please point them out in the comment section.
Timing isn't completely accurate, it's an internet tab after all.


Riff A

 1st time
E|---------------||-----------------------------||
B|---------------||-----------------------------||
G|---------------||-----------------------------||
D|-----------x-x-||----------5--------------x-x-||
A|-5/7-7-~---x-x-||-7--1--0--3--5-5/7-7-~---x-x-||
D|-5/7-7-~---x-x-||-7--1--0-----5-5/7-7-~---x-x-||


Riff B

E|----------------------------------|
B|----------------------------------|
G|----------------------------------|
D|----------------------------------|
A|-7-7-7-10---7-5---7-3---7-1---0---|
D|-7-7-7-10---7-5---7-3---7-1---0---|


Riff C

E|---------------------------------|
B|---------------------------------|
G|---------------------------------|
D|-------------------------x-x-xxx-|
A|-1-1-1-4---4-1-1-1-3---3-x-x-xxx-|
D|-1-1-1-4---4-1-1-1-3---3-x-x-xxx-|


Song structure is very basic (ABABC):
Riff A
Riff B
Riff A
Riff B
Riff C

Listen to the song for exact timing and how many times to repeat each riff.
Enjoy!
Tap to rate this tab
# A B C D E F G H I J K L M N O P Q R S T U V W X Y Z