Guitaretab - guitar tabs
Song name
# A B C D E F G H I J K L M N O P Q R S T U V W X Y Z

Lou Reed - Sweet Jane tab

------------------------------------------------------------------
		Sweet Jane - The Velvet Underground.
---------------------------------------------------------------

Tabbed by: -Carl.
Email: mutatedidiot@aol.com

Tuning: -Standard.
[ Tab from: http://www.guitaretab.com/l/lou-reed/128215.html ]
e|--2--2----3-3-------2-2--2-----3-3--------------------------------------|
B|--3--3-2--3-3----2--3-3--3--2--3-3----2---------------------------------|
G|--2--2-2--0-0--4-2--2-2--2--2--0-0--4-2---------------------------------|
D|--0--0-2--0-0--4-2--0-0--0--2--0-0--4-2---------------------------------|
A|-------0--2-2--2-0----------0--2-2--2-0---------------------------------|
E|----------3-3------------------3-3--------------------------------------|
Related for Sweet Jane tab
Sweet Jane chords by Lou Reed