Song name
# A B C D E F G H I J K L M N O P Q R S T U V W X Y Z

Louis Armstrong - When The Saints Go Marching In tab

e---------------------------------------------------------|
b----------10----------10----------10---------------------|
g----11-12-------11-12-------11-12----11----11-9----------|
d-12----------12----------12-------------12---------------|
a---------------------------------------------------------|
e---------------------------------------------------------|

e---------------------------------------------------------|
b------------------10-10-------------10-------------------|
g-11-11-9-------11-------12-11-12-11----11-9-9-7----------|
d---------12-12-------------------------------------------|
a---------------------------------------------------------|
e---------------------------------------------------------|

It's not the whole song but its a pretty good part of it. If there are any questions, 
contact me at Imneverok@yahoo.com . although, i forget to check my mail alot. cya
Tap to rate this tab
# A B C D E F G H I J K L M N O P Q R S T U V W X Y Z