Guitaretab - guitar tabs
Song name
# A B C D E F G H I J K L M N O P Q R S T U V W X Y Z

Louis-claude Daquin - Rejouissancedes Chasseurs tab

#----------------------------------PLEASE NOTE---------------------------------#
#This file is the author's own work and represents their interpretation of the #
#song. You may only use this file for private study, scholarship, or research. #
#------------------------------------------------------------------------------##
From: darsie@eecs.ucdavis.edu (Richard Darsie)


>From the Acoustic Guitar mailing list...

This is my arrangement of a French Baroque harpsichord piece.
Sounds nice on guitar. Hope you enjoy...

Richard

=========================================================================

TAB:  Rejouissance des Chasseurs, by Louis-Claude Daquin
Originally for harpsichord, arr. for guitar by Richard Darsie (c) 1992
Tuning:  Drop G (DGDGBE)
Timing:  3/4, 3 beats per measure, marked by verticals

    |     |     |        |   |   |      |  |  |     |     |     |
    |     |     |        |   |   |      |  |  |     |     |     |
E---------------------|--------------|-----------|-----------------|-
B---3--1--0--3-----3--|--0-----------|-----------|-----------0-----|-
G---0-----0-----2-----|--0-----------|--0--------|--2--0--2-----2--|-
D---------------4-----|------0---0---|-----0--0--|--4-----------4--|-
G---------------------|------0---0---|--4--0--0--|-----------------|-
D---------------------|--------------|-----------|--0-----------0--|-

[ Tab from: http://www.guitaretab.com/l/louis-claude-daquin/119661.html ]
    |     |     |        |   |     |       |  |     |       |  |  |
    |     |     |        |   |     |       |  |     |       |  |  |
E---------------------|-----------------|----------------|-----------||-
B---3--1--0--3-----3--|--0--------------|----------------|-----------||-
G---0-----0-----2-----|--0--------------|--0-------------|--2-------*||-
D---------------4-----|------0--0--0--0-|-----0--0--0--0-|--0-------*||-
G---------------------|------0-----0----|--4--0-----0----|-----2-----||-
D---------------------|-----------------|----------------|--------0--||-


        |     |     |        |     |     |        |   |   |
        |     |     |        |     |     |        |   |   |
E-||----------------------|--------------------|-------------|-
B-||----------3-----------|--0-----------1-----|--0----------|-
G-||*---2-----------2-----|--------2-----------|------2---0--|-
D-||*------0-----0-----0--|-----0-----0-----0--|-------------|-
G-||----------------------|--0-----------------|--0-------0--|-
D-||----0-----4-----0-----|--------4-----0-----|------4------|-


    |     |     |     |     |     |        |     |     |
    |     |     |     |     |     |        |     |     |
E------------------|--------------------|--------------------|-
B------------------|--------3-----------|--0-----------1-----|-
G---2--0-----------|--2-----------2-----|--------2-----------|-
D---0-----4--2--0--|-----0-----0-----0--|-----0-----0-----0--|-
G------------------|--------------------|--0-----------------|-
D---0-----------0--|--0-----4-----0-----|--------4-----0-----|-


    |  |     |        |     |     |
    |  |     |        |     |     |
E------------------|------------------||-
B---0--------------|------------------||-
G------2--0--2-----|--0--------------*||-
D------0--------4--|-----0-----0-----*||-
G---0--------------|--0-----4-----0---||-
D------------0-----|------------------||-

Related for Rejouissancedes Chasseurs tab