Guitaretab - guitar tabs
Song name
# A B C D E F G H I J K L M N O P Q R S T U V W X Y Z

Love Lies In Ashes - Intro tab

Artist = Love Lies in Ashes
Title = Intro
C.d. name = A Beautiful death
Track #1
Tabbed by JT (JesuSoarusRex)
\m/(>.<)\m/
KEY
 ~ = Bend
 h = Hammer on
 p = Pull off           
 \ = Slide
 * =Palm mute
----------------------------------------------------------------------------

Intro First Half
PLAY 2X
|-------------------------------------------------------------------------|
|-------------------------------------------------------------------------|
|-------------------------------------------------------------------------|
|----------------8~-----------------------------------8~----------87------|
|-0-000-000-7h8p7---0--000-000-7h8p78~-0-000-000-7h8p7--0-000-000---88~7~-|
|-0-000-000---------0--000-000---------0-000-000--------0-000-000---------|
  * *** ***         *  *** ***         * *** ***        * *** ***

Hmm Hmm.... Ummm Hello?
[ Tab from: http://www.guitaretab.com/l/love-lies-in-ashes/191494.html ]
Intro Second Half
|---------------------------------------------------------|
|---------------------------------------------------------|
|---------------------------------------------------------|
|-------------3-------------2-------------5---------------|
|-000-000-000-5-000-000-000-4-000-000-000-7-000-000-5\4\5-|
|-000-000-000---000-000-000---000-000-000---000-000-3\2\3-|
  *** *** ***   *** *** ***   *** *** ***   *** ***
|-----------------------------------------------------------|
|-----------------------------------------------------------|
|-----------------------------------------------------------|
|-------------3-------------2-------------5---------8\-7\8--|
|-000-000-000-5-000-000-000-4-000-000-000-7-000-000-10\9\10-|
|-000-000-000---000-000-000---000-000-000---000-000---------|
  *** *** ***   *** *** ***   *** *** ***   *** ***


|-----------------------------------------------------|       |---|
|-----------------------------------------------------|       |---|
|-----------------------------------------------------|       |---|
|-----------------------------------------------------|4x then|-0-|
|------------7778888888855577777777-------------------|       |-0-|
|-55555555555----------------------88877777777-10-8-7-|       |-0-|


----------------------------------------------------------------------------

Check out Love Lies in Ashes at

www.myspace.com/loveliesinashes
or 
www.dekarecords.com

and online music stores!!!
Related for Intro tab