Song name
# A B C D E F G H I J K L M N O P Q R S T U V W X Y Z

Love Like Birds - Heavy Heart tab

-------------------------------------------------------------------------------
                             Heavy Heart - Love Like Birds
-------------------------------------------------------------------------------
Tabbed by: UncleBrazzie
E-mail: unclebrazzie@gmail.com

Tuning: standard EADGBe

Generally, just play Am - C - Em during verses
                     Dm - C - Em back to Am furing chorus

Picking follows the same pattern throughout. 
Play only strings A and B in fourths (on the beat if you don't know what a fourth is).
Expand from there, playing the D and G strings in gently playful shuffling rhythm.
Listen to the song at http://www.youtube.com/watch?v=GL3j-J5zr-k for how the easy 
version could sound
or http://www.youtube.com/watch?v=WIk9M0xy-
Lg&feature=list_related&playnext=1&list=ALuJMIwg-TECuBr60hq2ChL8sHORinGrjP3QN--
FregTg06208wX58DmClycV6l8FOTY5EXS-R3yI= for the real thing.




Verse


        Am                 Am              C                Em

e|-----------------|----------------|----------------|----------------|
B|--1---1---1---1--|-1---1---1---1--|-1---1---1---1--|-0---0---0---0--|
G|----2---2---2---2|---2---2---2---2|---0---0---0---0|---0---0---0---0|
D|---2---2---2---2-|--2---2---2---2-|--2---2---2---2-|--2---2---2---2-|
A|-0---0---0---0---|0---0---0---0---|3---3---3---3---|2---2---2---2---|
E|-----------------|----------------|----------------|----------------|

Chorus


        D(m)              Am               C                Em

e|-----------------|----------------|----------------|----------------|
B|--3---3---3---3--|-1---1---1---1--|-1---1---1---1--|-0---0---0---0--|
G|----2---2---2---2|---2---2---2---2|---0---0---0---0|---0---0---0---0|
D|---0---0---0---0-|--2---2---2---2-|--2---2---2---2-|--2---2---2---2-|
A|-0---0---0---0---|0---0---0---0---|3---3---3---3---|2---2---2---2---|
E|-----------------|----------------|----------------|----------------|




VERSE:

Am             Am               C       
        Run my fingers over the ceiling
Em 
        I fly, I fly

Am             Am               C       
  Make little jumps      on the ceiling
Em
  I can cause I fly, I fly, fly
 

(verse follows the same pattern)

Cut their wires, now theyíre flying with me
Paper cranes fill the air
Cut my wire, now Iím free and flying
But with the windows closed 
I stay inside 



Chorus (2x)


Dm                               Am
        Have a heavy heart, itís    bruised
 

C                                Em
        Doesnít matter for         now


Your sweater full of tears
Thatís cause of me
Cause I, I cried so hard
And you held me near

A salty sweater full of tears
Cause I, I cried so hard
And you held me near
With my eyes closed
 
You didnít leave
ĎTruth doesnít matter for now
I keep my eyes closed
And you, you didnít leave

ĎTruth doesnít matter for now 


VERSE again
Have a heavy heart, itís bruised
Doesnít matter for now
I have a heavy heart, itís bruised
Doesnít matter for now 

I keep my heart inside a box
Outside of my body
So it doesnít bother me at all
Doesnít bother you
Doesnít bother anyone
 
But me, but me
 
I keep my heart inside a box
Outside of my body
So it doesnít bother me at all
Doesnít bother you
Doesnít bother anyone
 
But me 

Run my fingers over the ceiling
I fly, I fly
I lay down on the ceiling
And with my eyes closed
 
You didnít leave

************************************

| /   slide up
| \   slide down
| h   hammer-on
| p   pull-off
| ~   vibrato
| +   harmonic
| x   Mute note
| b   Bend
| pb  Pre-bend
| br  Bend release
| pbr Pre-bend release
| brb Bend release bend

************************************
Tap to rate this tab
 
# A B C D E F G H I J K L M N O P Q R S T U V W X Y Z