Song name
# A B C D E F G H I J K L M N O P Q R S T U V W X Y Z

Love Outside Andromeda - Juno tab

Help us improve GuitareTab! Take a short survey!
Band: Tokyo Police Club
Album: Elephant Shell
Track: 04- Juno
             F#                F
I've got a place in the Arctic Circle 
             D#                F
I've got a place that I've painted white 
             F#                F
I've got a home in the salty ocean
       C#       B
So right, so right

All of the lions in your bedroom
All of the tigers we ignored
Pulling the wool down over your eyes
Yes sir, yes sir

Your and your soapy eyes
You called it off so late at night
'Cause your hands in your heart
And your head's always right X2

(for the chorus, just let the chords ring out after hitting each once, same timing)

Little piano bit :
e|---------------------------------------------------------|
B|-------11-14-11------11-14-11----------------------------|
G|----13------------13----------13-------------------------|
D|---------------------------------------------------------|
A|---------------------------------------------------------|
E|---------------------------------------------------------|

I'm gonna go back for the science
I'm gonna stay for the decimals
Noone will ever know the difference
Same old, same old

B
Fine you were right
C#
This wound needs ice
B         
Fine you were right
C#
This wound needs ice

Your and your soapy eyes
You called it off so late at night
'Cause your hands in your heart
And your head's always right X2

Juno, you're tired
Juno, you're tired

^ For this part, play
e|---------------------------------------------------------|
B|-------11-14-11------11-14-11----------------------------|
G|----13------------13----------13-11----------------------|
D|---------------------------------------------------------|
A|---------------------------------------------------------|
E|---------------------------------------------------------|
Related for Juno tab