Song name
# A B C D E F G H I J K L M N O P Q R S T U V W X Y Z

Love Puddle - Carry Me Away tab

http://ilovepuddle.com/
       Intro
    D   ?   G   A    (listen to song for strumming on their myspace)


       Chorus
     D   ?   G   A (follow strumming with piano)


       Solo-Part 1 (play this twice)
E|-------------------------------|
B|-7753-5/7753-5/7753---5--------|
G|--------------------24---------|
D|-------------------------------|
A|-------------------------------|
E|-------------------------------|

       Solo-Part 2
E|----------------------------------------------|
B|-8---------------10-8------10-8----8-10-12-10-|
G|--11-9-11-11-9-9------11-9------11------------|
D|----------------------------------------------|
A|----------------------------------------------|
E|----------------------------------------------|

E|-------10^12-----------------------|
B|-10-12-----------------------------|
G|-----------------------------------|
D|-----------------------------------|
A|-----------------------------------|
E|-----------------------------------|
Tap to rate this tab
# A B C D E F G H I J K L M N O P Q R S T U V W X Y Z