Song name
# A B C D E F G H I J K L M N O P Q R S T U V W X Y Z

Lovebugs - Exit tab

-------------------------------------------------------------------------------
                            Exit - Lovebugs
-------------------------------------------------------------------------------
Tabbed by: käspi
Email: kg@kgmw.ch

Standard Tuning, Capo 3

Intro:
Em

Verse 1:
Em
   I see the light is changing
   
I see the weather turn
Em
   I know storm is coming
   
But I just can't return
     D                               Em
It's over and it can't get worse than this


Verse 2:
Em
   I see the darkness's rising
   
I see the girl I've kissed
Em
  Begging me to come home

Strike me off the list
     D                               Em
It's over and it can't get worse than this


Chorus 1:
C                      G
  When I turn my head
                       D
I see taillight fading
                       Em
I see you slowly slip away
C               G
  It seems I've reached
                  D
The point of no return
                  Em
Let's let the bridges burn


Verse 3:
Em
  I hear my heart is beating

Blood rushes to my veins
Em
   And I just keep on running

Out into the plains
     D                               Em
It's over and it can't get worse than this


Chorus 2:
C                      G
  When I turn my head
                       D
I see taillight fading
                       Em
I see you slowly slip away
C               G
  It seems I've reached
                  D
The point of no return
                 C
Yeah, I can tell you
        G
As I go ahead
                      D
I feel memories fading
                      Em
I feel them slowly turn to gray
C               G
  It seems I've reached
                  D
The point of no return
                   Em
Let's let the bridges burn

Let the bridges burn 

Em


Solo:
   Am                   Em                   D                    G
e|----------------------------------------------------------------------------|
B|----------------------------------------------------------------11-11-11-10-|
G|----------10-10-10-------------12-12-12-------------10-10-10----------------|
D|-10-10-12----------12-10-10-12----------12-10-10-12----------12-------------|
A|----------------------------------------------------------------------------|
E|----------------------------------------------------------------------------|

      Am                   Em                   D
e|----------------------------------------------------------------------------|
B|-------11-11----11b13b11----11-11----11b13b11-------------------------------|
G|-12-------------------------------------------------------------------------|
D|----13-------13----------12-------12----------------------------------------|
A|----------------------------------------------12-12-12-8-8-8-8-10-10-10-10--|
E|----------------------------------------------------------------------------|

e|-------------|
B|-------------|
G|-------------|
D|-------------|
A|-12-12-12-12-|
E|-------------|


(Chorus 1)
Tap to rate this tab
# A B C D E F G H I J K L M N O P Q R S T U V W X Y Z