Song name
# A B C D E F G H I J K L M N O P Q R S T U V W X Y Z

Lovedrug - Only One tab

Intro/ Chorus
--------------------------|
--------------------------|
--------------------------|
--------3--------------5--|
-5------1-------3------3--|
-3--------------1---------|

Verse
--3----5----|
--3----6----|
--3----7----|
--5----7----|
--5----5----|
--3---------|

bridge
----------------------|
----------------------|
--3-----5-------------|
--3--3--5-------------|
--1--3--3-------------|
-----1----------------|

solo
------------------------------------------------------------------------|
------------------------------------------------------------------------|
-----------------10---7--9b 9 -------------------10---7p5---------5h7---|
-------------8-----------------------------8----------------5h7---------|
---10---12------------------------10---12-------------------------------|
------------------------------------------------------------------------|
Tap to rate this tab
 
# A B C D E F G H I J K L M N O P Q R S T U V W X Y Z