Song name
# A B C D E F G H I J K L M N O P Q R S T U V W X Y Z

Lovehatehero - Red Dress tab

Band name : Lovehatehero
Song name : Red Dress
Album : White Lies
Awesomeness : Hellaaa!
Tabbed by: Rowell

Tuning: Drop C

Note : I didn’t repeatedly type out the entire song. I just included what you need to
Listen to the song to know when to play the parts.
If you have any questions, leave a comment and I’ll try to answer ASAP. Thanks and enjoy playing.


Update 1 : Fixed error on verse part on lead.


Guitar 1 : Lead

D|-------------------------------------------------------|
A|----10-8-6-8-----6-/13-10------10-8-6-8---6-13-/8------|
F|-/10----------7-------------/10----------7-------------|
C|-------------------------------------------------------|
G|-------------------------------------------------------|
C|-------------------------------------------------------|

D|-------------------------------------------------------|
A|----10-8-6-8-----6-/13-/10------10-8-6-8---/10---------|
F|-/10----------7-------------/10------------------------|
C|-------------------------------------------------------|
G|-------------------------------------------------------|
C|-------------------------------------------------------|


D|--------—--13--15---------------|-----------|
A|---/13-15----------13-11-10-11--|--13-b-15--|
F|--------------------------------|-----------|
C|--------------------------------|-----------|
G|--------------------------------|-----------|
C|--------------------------------|-----------|
             (3x)


RAWRR! I think there’s something here!

Verse
D|--------------------------------------|
A|--------------------------------------|
F|--------------------------------------|
C|--------------------------------------|
G|-000-000-8-7-000-7-5-000-000-5-3------|
C|-000-000-----000-----000-000----------|
             (4x)

You’re the girl with the red dress on…

D|------------------------------------|
A|------------------------------------|
F|------------------------------------|
C|-0--0-3-0-5-0-2-0-3-0-2-0-2-3-2-----|
G|------------------------------------|
C|------------------------------------|
             (2x)
                                   Drifting away...
D|----------------------------------------------|
A|----------------------------------------------|
F|----------------------------------------------|
C|-0--0-3-0-5-0-2-0-3-0-2-0-2-3---5--3--7--8----|
G|----------------------------------------------|
C|----------------------------------------------|


WHOAAA HOO OWW…

Chorus
D|-10-12-13---17171715171717172020222217171515---10-12-13------------|
A|-------------------------------------------------------------------|
F|-------------------------------------------------------------------|
C|-------------------------------------------------------------------|
G|-------------------------------------------------------------------|
C|-------------------------------------------------------------------|

D|-10-12-13-------------------------------|-17----15----20----20----20---------|---------|
A|----------------------------------------|---1513--1513--1817--1817--1817-----|---------|
F|-----------910129101291017----17----17*-|------------------------------------|-10~~~~--|
C|--------------------------1514--1514----|------------------------------------|---------|
G|----------------------------------------|------------------------------------|---------|
C|----------------------------------------|------------------------------------|---------|
                                                    (3x)

Drifting away…

Break
D|-----------------------------------------------------------------|
A|-15----15-----------13----13--17----17-----------15----15--------|
F|----14----14--12-14----14--------17----17--14-16----16-----------|
C|-----------------------------------------------------------------|
G|-----------------------------------------------------------------|
C|-----------------------------------------------------------------|
                              (2x)

D|---------------------------------------------------------------------------|
A|---------------------------------------------------------------------------|
F|--7-10-7-10/12---7-14-15-14-12--12b14r12-10~--7-10-7-10/12--7-7-5~---------|
C|---------------------------------------------------------------------------|
G|---------------------------------------------------------------------------|
C|---------------------------------------------------------------------------|

D|--10-13-10-13/15---10-17-18-17-15-15b17r15-13-----10-13-10-13/15---10-10/12-10~~~---|
A|------------------------------------------------------------------------------------|
F|------------------------------------------------------------------------------------|
C|------------------------------------------------------------------------------------|
G|------------------------------------------------------------------------------------|
C|------------------------------------------------------------------------------------|


Well I guess the final chorus/es can be quite complicated so I’m gonna tab it out.


WHOAAAAA HOOO WHOA!

Final Chorus/es
D|-17----15----20----20----20----------------------------------------|
A|---1513--1513--1817--1817--1817------------------------------------|
F|----------------------------------910129101291017----17-----17*----|
C|-----------(3x)---------------------------------- 1514--1514-------|
G|-------------------------------------------------------------------|
C|-------------------------------------------------------------------|

Just repeat that until the song ends. Final note is a 10~ on the F string.

==================================================================================


Guitar 2 : Rhythm


Intro/Chorus
D|---------------------------------------------------------------------------|
A|---------------------------------------------------------------------------|
F|---------------------------------------------------------------------------|
C|---------------------------------------------------------------------------|
G|---8-8888-10-10101010-10-1010-0-0000-0-0000-0-00---------------------------|
C|---8-8888-10-10101010-10-1010-0-0000-0-0000-0-00---------------------------|
Pm     ....     . . . .     . .   ....   ....   ..

D|---------------------------------------------------------------------------|
A|---------------------------------------------------------------------------|
F|---------------------------------------------------------------------------|
C|---------------------------------------------------------------------------|
G|--8-8888-10-10101010-10-1010--0000-0-0-0000-0-0000-0-0-0-------------------|
C|--8-8888-10-10101010-10-1010--0000-0-0-0000-0-0000-0-0-0-------------------|
Pm    ....     . . . .     . .  ....     ....   ....

D|---------------------------------------------------------------------------|
A|---------------------------------------------------------------------------|
F|---------------------------------------------------------------------------|
C|---------------------------------------------------------------------------|
G|---8-8888-10-10101010-10-1010-0-0000-0-0000-0-00---------------------------|
C|---8-8888-10-10101010-10-1010-0-0000-0-0000-0-00---------------------------|
Pm     ....     . . . .     . .   ....   ....   ..


D|------------------------------|
A|------------------------------|
F|------------------------------|
C|------------------------------|
G|----000-000-10\---------------|
C|----000-000-10\---------------|
Pm    ... ...

           (4x)

RAWRR! I think there’s something here!

Verse
D|--------------------------------------|
A|--------------------------------------|
F|--------------------------------------|
C|--------------------------------------|
G|-000-000-8-7-000-7-5-000-000-5-3------|
C|-000-000-----000-----000-000----------|


             (4x)

You’re the girl with the red dress on...   |   Drifting away...
D|-----------------------------------------|------------------------|
A|-----------------------------------------|-----8-6-10-12----------|
F|------5-7------5-------------------------|------------------------|
C|-----------------------------------------|------------------------|
G|--1---3-5------3-1~----------------------|------------------------|
C|-----------------------------------------|------------------------|


You leave me speechless...

Verse 2
D|---------------------------------------------------------------------------|
A|---------------------------------------------------------------------------|
F|---------------------------------------------------------------------------|
C|---------------------------------------------------------------------------|
G|--5555558888810101010--------------------------888810101010----------------|
C|----------------------333333333333333355555588--------------3333333--------|


Drifting away...

Break
D|---------------------------------------------------------------------------|
A|---------------------------------------------------------------------------|
F|---------------------------------------------------------------------------|
C|---------------------------------------------------------------------------|
G|--000-00-0--0-0-8--8-8-8-8--5--5-5-5--5-5---55555555-----------------------|
C|--000-00-0--0-0-8--8-8-8-8--5--5-5-5--5-5---33333333-----------------------|
Pm  ... ..

                           (4x)

Final chorus/es is the same as the original chorus.

There you go! Enjoy! :D


| /  slide up
| \  slide down
| h  hammer-on
| p  pull-off
| ~  vibrato
| *  pinch harmonic
| x  Mute note
===============================================================================
Tap to rate this tab
# A B C D E F G H I J K L M N O P Q R S T U V W X Y Z