Guitaretab - guitar tabs
Song name
# A B C D E F G H I J K L M N O P Q R S T U V W X Y Z

Loverboy - When Its Over tab

-------------------------------------------------------------------------------
			     When Its Over - Loverboy
-------------------------------------------------------------------------------
Tabbed by:Zrox
Email:zachscifres@hotmail.com

Intro-D E F#m

F#m
When you look into his eyes
It comes to you as no surprise
E
It's always the same
F#m
Every time he's out with you
He tries to tell you what to do
E
You don't need it that way
F#m
Sometimes you think you're playing the fool
He's running around breaking all the rules
E
Somehow that don't seem fair
F#m
There's got to be a better way
You know what I'm trying to say 
E
F#m
'Cause deep, deep down inside
You're living in a life in total lies
E
F#m
What did he ever do for you
What's he trying to put you through
E
I just don't understand
F#m
You showed him love and tenderness
Touched him with your sweet caress
E
Now he's leaving you
F#m
So what's the point in working it out
Tell me what it's all about
E
That's why I'm saying
F#m
I hope you're with me 
F#m                   E
I hope you're with me when it's over
F#m
I hope you're with me
F#m                   E
I hope you're with me when it's over
F#m
You won't be lonely
F#m                 E
You won't be lonely when it's over
F#m
You won't be lonely (you)
E
When it's over
E          D          C
It's over, it's over, it's over
E          D          C
It's over, it's over, it's over
[ Tab from: http://www.guitaretab.com/l/loverboy/154296.html ]
Solo:
e|---------------------------------------------------------------------------|
B|---------------------------------------------------------------------------|
G|--5b-5b-5-6b-5---6-5h6p5-3------3h5p3--------------------------------------|
D|---------------------------5-----------5--3---3--5--------3--5-------------|
A|---------------------------------------------------5--3v--------5--3v------|
E|---------------------------------------------------------------------------|

e|---------------------------------------------------------------------------|
B|----------------------5----------------------------------------------------|
G|---------------------------------------------------------------------------|
D|---------------------------------------------------------------------------|
A|--3v--3h5p3-5---3s7--------------------------------------------------------|
E|---------------------------------------------------------------------------|



"When Its over" lick between chord switch:
e|---------------------------------------------------------------------------|
B|---------------------------------------------------------------------------|
G|---------------------------------------------------------------------------|
D|---------------------------------------------------------------------------|
A|-9h11-7--------------------------------------------------------------------|
E|---------------------------------------------------------------------------|

And in the morning when he's gone
Please don't sing that sad, sad song
I don't want to hear it
Forget about him
Let him go
It won't hurt what he don't know
What's he trying to say to you
What's he trying to tell you
He don't really care
Face the truth and realize
You don't need his alibi's
No more
I hope you're with me
I hope you're with me when it's over
I hope you're with me
I hope you're with me when it's over
You won't be lonely
Related for When Its Over tab