Song name
# A B C D E F G H I J K L M N O P Q R S T U V W X Y Z

Loverboy - Working For The Weekend tab

if you have any problems then email me at williams022545@yahoo.com
im pretty sure this is correct it sounds correct to me
standard tuning!
-------------------------------------------------------------------------|----|
-------------------------------------------------------------------------|----|
-------------------------------------------------------------------------|----|
---4-4-4-4--3-3-3--2-------------------4-4-4-4--3-3-3--2-----------------|----|
---2-2-2-2--2-2-2--2--------0-------2--2-2-2-2--2-2-2--2-------0-------2-|----|
----------------------0-1-2---0-1-2----------------------0-1-2---0-1-2---|----|
 intro x2

------------------------------------------------------------------------------|
------------------------------------------------------------------------------|
---4-4-4-4---------------4-4-4-4----4-4-4-4-----------------------------------|
---4-4-4-4-----5-5-5-5---4-4-4-4----4-4-4-4-----------------------------------|
---2-2-2-2-----5-5-5-5---2-2-2-2----2-2-2-2-----------------------------------|
---------------3-3-3-3--------------------------------------------------------|
 ..everyones...to see....everyones..looking

------------------------------------------------------------------------------|
------------------------------------------------------------------------------|
----4-8---4-8----4------------------------------------------------------------|
--6-----6------6-----6-9--6-9---6---------------------------------------------|
-------------------7-----7----7-----------------------------------------------|
------------------------------------------------------------------------------|
 ..at you     ..ohhhhh....

------------------------------------------------------------------------------|
------------------------------------------------------------------------------|
--4-4-4-4-----------------4-4-4-4----4-4-4-4----------------------------------|
--4-4-4-4------5-5-5-5----4-4-4-4----4-4-4-4----------------------------------|
--2-2-2-2------5-5-5-5----2-2-2-2----2-2-2-2----------------------------------|
---------------3-3-3-3--------------------------------------------------------|
 ..everyones...will you...everyones tryin'  to get it right

------------------------------------------------------------------------------|
------------------------------------------------------------------------------|
----4-8---4-8---4-------------------------------------------------------------|
--6-----6-----6-----6-9---6-9---6---------------------------------------------|
------------------7-----7-----7-----------------------------------------------|
------------------------------------------------------------------------------|
 ..get it right

---------------3----------------------------------------------3---------------|
---------------3----------------------------------------------3---------2-----|
--7------------0----------------------------7-----------------0---------2-----|
--7------------x----------------------------7-----------------x---------2-----|
--5------------x-------------------------0--5-----------------x---------0-----|
---------------3---------3-3-2-2-0-0-2-3----------------------3---------------|
 .everybody's..weekend..                  ..everybody wants...romance...

---------------3----------------------------------------------3------3--------|
---------------3----------------------------------------------3------3--------|
--7------------0----------------------------7-----------------0------0--------|
--7------------x----------------------------7-----------------x------x--------|
--5------------x-------------------------0--5-----------------x------x--------|
---------------3---------3-3-2-2-0-0-2-3----------------------3------3--------|
 .everybodys ..deep end                   ..everybodys needs..chance

------------------------------------------------------------------------------|
------------------------------------------------------------------------------|
-----------------------------------------------p---p---h----------------------|
-------------5-4-2-0-2------5-4-2-0-0------5-4-2-0-2-0-4--h-------------------|
----------------------------------------------------------2-------------------|
--33-3-3-3-------------3333-----------3333------------------------------------|
 ..let's go!   (chug the G on 6th, then peddle through riff) pull/hammer

------------------------------------------------------------------------------|
------------------------------------------------------------------------------|
------------------------------------------------------------------------------|
--5-5-5-5-5-5-5-5-4-4-4-4-4-4-4-4-4-5-5-5-5-5-5-5-5-5-5-4-4-4-4-4-4-4---------|
------------------------------------------------------------------------------|
------------------------------------------------------------------------------|
 !!lead!! squinch +/- 1inch from brdg pkup  for phase, or use a phaser 4this

The rest of the song you can pull together form all of these portions...
Tap to rate this tab
# A B C D E F G H I J K L M N O P Q R S T U V W X Y Z