Song name
# A B C D E F G H I J K L M N O P Q R S T U V W X Y Z

Lovers Electric - Closer chords

Highlighted       Show chord diagrams
Tabs: Corey Pham-Lu
Chords: Corey Pham-Lu
Lyrics: Letssingit.com
Band: Lovers Electric
Song: Closer
Website: http://www.loverselectric.com
Wikipedia: http://en.wikipedia.org/wiki/Lovers_Electric

This is my first ever tab, and this is a piano heavy song, so just 
remember that when you criticize my attempt. 2nd Guitar part at the 
bottom of the page as well as finger picking for the verses. Learnt this
all by ear and listening to the song alot.

Standard Tuning
e
B
G
D
A
E

Capo on the first fret.

Intro
Em C G D
Em C G D

Verse 1:
                Em
you want more space
                C
i want less distance
               Em
you want more words
             C
I want less noise
              Em
you speak in rhythms
            C
i dream in wishes
            G      D      C
we've got nowhere left to hide
     D
you see the sun
            C
I see the burning
         D                 G   D
you see good things in everyone

Chorus:
Em             C
 The closer my heart is
    G            D 
 the further my head is from you
Em                C
 The more that I need you
     G           D
 the less I can see what to do

Repeat Chorus.

Instrumental:
Em C G D
Em C G D

Verse 2:
             Em
you want my hand
             C
I want the darkness
              Em
you want the warmth
            C
I want the cold
           Em
you walk ahead
            C
I walk in circles
             G     D      C
we've got nowhere left to go
     D
you see the sun
           C
I see the burning
         D                  G  D
you see good things in everyone

Chorus:
Em             C
 The closer my heart is
    G            D 
 the further my head is from you
Em                C
 The more that I need you
     G           D
 the less I can see what to do

Repeat x2

Instrumental:
Em C G D
Em C G D
End on Em

2nd Guitar part - Played during intro & instrumentals (Main piano rift)
Capo 1st fret
Standard Tuning
       Em      C     G        D
e-|------------------------------------|
B-|------------------------------------|
G-|----7------7------7-----------------|
D-|--5---5--5---5--5---5--7--9--7--5---|
A-|------------------------------------|
E-|------------------------------------|

       Em      C     G        D
e-|------------------------------------|
B-|-------------8----------------------|
G-|----7------7------7-----------------|
D-|--5---5--5------5---5--7--9--7--5---|
A-|------------------------------------|
E-|------------------------------------|

2nd Guitar or 1st Guitar picking on Verses instead of playing the chords

       Em                  C      
e-|----0------------------0------------|
B-|------------------------------------|
G-|------2-0----------------2-0--------|
D-|---2--------------------------------|
A-|---------------------3--------------|
E-|------------------------------------|
Tap to rate this tab
 
# A B C D E F G H I J K L M N O P Q R S T U V W X Y Z