Song name
# A B C D E F G H I J K L M N O P Q R S T U V W X Y Z

Lovi Poe - Dreaming Of You tab

helo to all fans of lovi!!!!!!!!!!! dis song is for the special girl for me..
Hi to ANA MARIE ZAMORA!!!!!

Standard Tuning

Verse:
[------------------------------------------]
[-2---3---5---6---5----2--0----------------]
[----------------------------2--4----------]
[------------------------------------------]
[------------------------------------------]
[------------------------------------------]

[------------------------------------------]
[-2---3---5---6---5----2--0----------------]
[------------------------------------------]
[------------------------------------------]
[------------------------------------------]
[------------------------------------------]

[--2--4--5--4--2--0----0---5--4--2--0----------------]
[--------------------0---0--------------0--2---0--2--]
[----------------------------------------------------]
[----------------------------------------------------]
[----------------------------------------------------]
[----------------------------------------------------]

Tap to rate this tab
# A B C D E F G H I J K L M N O P Q R S T U V W X Y Z