Song name
# A B C D E F G H I J K L M N O P Q R S T U V W X Y Z

Low - Lullaby tab

-------------------------------------------------------------------------------
                             Lullaby - - Low
-------------------------------------------------------------------------------
Tabbed by: danabnornmal

Beautiful track from their debut 'I Could Live in Hope'. 

Tuning: DGDGAD

Intro/verse/outro: (super slow)

D|--------------------------|
A|--------------------------|
G|--------------------------|
D|-----0-------0-------0----|
G|---6-------6-------4------|
D|-9-------7-------5--------|

Heavier part: (a leeetle faster...)

Following chords are used

  (B5)   (A5)   (G5/addC#)

D|-9------7------5---    --5--------|
A|-9------7------5---    --5/4------|
G|-11-----9------7/6- OR --0--------|
D|-9------7------5---    --0--------|
G|-11-----9------7---    --4--------|
D|-9------7------5---    --5--------|

Find a nice slidey reverb setting and really slow things down. mmmmm.
Tap to rate this tab
 
# A B C D E F G H I J K L M N O P Q R S T U V W X Y Z