Song name
# A B C D E F G H I J K L M N O P Q R S T U V W X Y Z

Low - Lullaby tab

Lullaby-Low (1994)
Album: I Could Live In Hope
Tab by Floyd96

Guitar intro

--------------------------------------------------|
--------------------------------------------------|
--------------------------------------------------|
--------------------------------------------------|
-2--4--5-------0--4--5----------2--5--------------|
-----------------------------3--------------------|


Bass intro

---------------------------------------------------|
---------------------------------------------------|
-2-------------0----------------------------4/5----|
-----------------------------3-------------------3-|

Lyrics

Cross over and turn
Feel the spot don't let it burn
We all want we all yearn
Be soft don't be stern

Lullaby
Was not supposed to make you cry
I sang the words I meant
I sang


I think it's 100% correct
Tap to rate this tab
# A B C D E F G H I J K L M N O P Q R S T U V W X Y Z