Song name
# A B C D E F G H I J K L M N O P Q R S T U V W X Y Z

Lowdown - Come Back tab

INTRO:

E--------------------------------------------------------------------------------------------|
B--------------------------------------------------------------------------------------------|
G-------------------------------0--------------------0------------0-------------0------------|        X2
D--------------------------9------------------9--------------9---------------9---------------|
A---------------------7-------------------7--------------7-------------7---------------------|
E----------------8--------------------8--------------0---------------0-----------------------|

VERSE:
E-----------------------------------------------|
B-----------------------------------------------|        STRUM   THIS
G----------0---------0----------0-----------0---|
D----------9---------9----------9-----------9---|
A----------7---------7----------7-----------7---|
E----------8----------8----------0-----------0--|

CHORUS:

G    C    Am
G    C    Am

REPEAT VERSE?
REPEAT CHORUS?.

BRIDGE:

E------------------------------------------------------------------------------------------------|
B------------------------------------------------------------------------------------------------|
G------------------------------------------------------------------------------------------------|        X2
D----------9--------4-------5-----7-/--8---------------------------------------------------------|
A-----------7--------2------3-----5-/--6---------------------------------------------------------|
E-----------7--------2------3-----5-/--6---------------------------------------------------------|


REPEAT CHORUS X2

END ON Am
Tap to rate this tab
 
# A B C D E F G H I J K L M N O P Q R S T U V W X Y Z