Song name
# A B C D E F G H I J K L M N O P Q R S T U V W X Y Z

Lowell George - Willin tab

Willin' - by Lowell George

All verses are to be played with the chord voicings from the INTRO.
All choruses are to be played using the chord voicings shown in the first CHORUS.
**Please note the flowing chords in the intro: "G     C D C G."
Each time this pattern appears in the song it is played the same way it is
played in the intro. Instead of playing a standard C D C you simply play a "C"
then slide the pattern up two frets for a "D," then back down two frets for
the next "C."

INTRO
    G        G/F#       Em           C              **G        C   D   C
e---x---------x----------x-----------x----------------3--------x---x---x----|
B---12--------10---------8-----------5----------------0--------1---3---1----|
G---0---------0----------0-----------0-------------0--0--------0---0---0----|
D---0---------0----------0--------0--0-------0--2-----0--------2---4---2----|
A---10--------9----------7-----------3----------------2--------3---5---3----|
E---x---------x----------x-----------x----------------3--------X---x---x----|

    G              G
e---3--------------3--------------------------------------------------------|
B---0--------------0--------------------------------------------------------|
G---0--------------0--------------------------------------------------------|
D---0--------------0--------------------------------------------------------|
A---2--------0--2--2--------------------------------------------------------|
E---3--------------3--------------------------------------------------------|

VERSE
          G                  G/F#                      Em
I've been warped by the rain, driven by the snow I'm, drunk and dirty,
C                         G               C  D  C  G
   don't you know and I'm still,                          willing.

      G              G/F#                        Em
I was out on the road late at night, I've seen my pretty Alice in
  C               G             C   D   C   G
every headlight.  Alice,             Dallas Alice.

CHORUS
                   C               D                      G
e------------------0---------------2----------------------3--------------|
B------------------1---------------3----------------------0--------------|
G------------------0---------------2----------------------0--------------|
D------------------2---------------0----------------------0--------------|
A------------------3---------------x----------------------2--------------|
E------------------x-------3-------x------------------0-2-3--------------|
And I've been from Tucson to  Tucumcari, Tehachapi to Tonopah,

                                               C
e----------------------------------------------0-------------------------|
B----------------------------------------------1-------------------------|
G----------------------------------------------0-------------------------|
D----------------------------------------------2-------------------------|
A-------------------------0----------2---------3----------3--------------|
E-----------3----------------------------------x-----3---------3---------|
Ive driven every kind of rig that's ever been made.

      C                                      D
e-----0--------------------------------------2---------------------------|
B-----1--------------------------------------3---------------------------|
G-----0--------------------------------------2---------------------------|
D-----0--------------------------------------0---------------------------|
A-----3--------------------------3-----------0---------------------------|
E-----x---------3----------------------------x---------------------------|
I've driven the back roads so I wouldn't get weighed

                      C     D          G                   D
e---------------------0-----2----------3-------------------2----------------|
B---------------------1-----3----------0-------------------3----------------|
G---------------------0-----2----------0-------------------2----------------|
D---------------------2-----0----------0-------------------0----------------|
A---------------------3-----x----------2-------------------x----------------|
E---------------------x-----x------0-2-3-------------------x----------------|
And if you give me    weed, whites and wine, and show me a sign

        G             C   D   C   G
e-------3-------------0-------0---1----------------------------------|
B-------0-------------1---3---1---0----------------------------------|
G-------0-------------0---0---0---0----------------------------------|
D-------0-------------2---4---2---0----------------------------------|
A-------2-------------3---5---3---2----------------------------------|
E-------3-------------x---x---x---3----------------------------------|
I'll be willing,          To  be  moving.

VERSE
           G                G/F#                         Em
I've been kicked by the wind, robbed by the sleet Had my head stoved in,
        C                        G        C  D  C  G
but I'm still on my feet and I'm still...          willin'


       G                                      G/F#
Now I smuggled some smokes and folks from Mexico
Em                  C                   G     C  D  C   G
   Baked by the sun, every time I go to Mexico, and I'm still

CHORUS
                C               D                     G
And I been from Tucson to Tucumcari, Tehachapi to Tonapah
                                          C
Driven every kind of rig that's ever been made
                                        D
Driven the back roads so I wouldn't get weighed
                    C     D           G
And if you give me: weed, whites, and wine
                  D
And you show me a sign
         G                C  D  C   G
I'll be willin',              to be movin'.
Tap to rate this tab
# A B C D E F G H I J K L M N O P Q R S T U V W X Y Z