Song name
# A B C D E F G H I J K L M N O P Q R S T U V W X Y Z

Lower Dens - Rosie tab

Lower Dens
"Rosie"
Twin Hand Movement

Tabbed by Andrew Salsman - ajsalsman@gmail.com

Standard Tuning

Chords
    Bm     D      Am     G
e:--7------5------5------3--|
B:--7------7------5------3--|
G:--7------7------5------4--|
D:--9------7------7------5--|
A:--9------5------7------5--|
E:--7-------------5------3--|


Intro
e:-----------------------------------------------------------------------------------|
B:-----------------------------------------------------------------------------------|
G:-------9h11------9h11------9h11------9h11------------------------------------------|
D:--9-12------9-12------9-12------9-12---------9h12-9-----9h12-9----9h12-9----9h12---|
A:------------------------------------------10---------10--------10--------10--------|
E:-----------------------------------------------------------------------------------|

e:-------------------------------------------------------------------------------------|
B:-------------------------------------------------------------------------------------|
G:-------9h11------9h11------9h11------9h11--------------------------------------------|
D:--9-12------9-12------9-12------9-12------9----9h12-9----9h12-9----9h12-9----9h12-9--|
A:--------------------------------------------10--------10--------10--------10---------|
E:-------------------------------------------------------------------------------------|

e:---------------------------------------------------------------------------|
B:---------------------------------------------------------------------------|
G:---------------------------------------------------------------------------|
D:----9h12-9---9h12-9---9h12-9---9h12-9---9h12-9---9h12-9---9h12-9---9h12-9--|
A:--9--------9--------9--------9--------7--------7--------7--------7---------|
E:---------------------------------------------------------------------------|

e:-----------------------------------------------------------------------------|
B:-----------------------------------------------------------------------------|
G:-----------------------------------------------------------------------------|
D:----9h12-9---9h12-9----9h12-9----9h12-9---9h12-9---9h12-9---9h12-9---9h12-9--|
A:--9--------9--------10--------10--------7--------7--------7--------7---------|
E:-----------------------------------------------------------------------------|

e:-------------------------------------------------------------------------------------|
B:-------------------------------------------------------------------------------------|
G:-------------------------------------------------------------------------------------|
D:----9h12-9---9h12-9----9h12-9----9h12-9---10h12-10---10h12-10---10h12-10---10h12-10--|
A:--9--------9--------10--------10--------0----------0----------0----------0-----------|
E:-------------------------------------------------------------------------------------|

e:---------------------------------------------------------------------------------------|
B:---------------------------------------------------------------------------------------|
G:---------------------------------------------------------------------------------------|
D:----10h12-10---10h12-10---10h12-10---10h12-10----9h12-9----9h12-9----9h12-9----9h12-9--|
A:--7----------7----------9----------9----------10--------10--------10--------10---------|
E:---------------------------------------------------------------------------------------|

e:-------------------------------------------------------------------------------|
B:-------------------------------------------------------------------------------|
G:-------------------------------------------------------------------------------|
D:----9h12-9---9h12-9---9h12-9---9h12-9----9h12-9----9h12-9----9h12-9----9h12-9--|
A:--9--------9--------9--------9--------10--------10--------10--------10---------|
E:-------------------------------------------------------------------------------|

Bm    G    Bm    G    Bm

G
Rosie, my dear
Bm
Don't leave me hanging out
D
Can I ask you to
Am
Not ask me questions
G
Give me a way


Bm
I won't need much
D
I wanted you back when
Am
It was an issue
G
Come in here


Bm
Leave me with my insights
D          Am
Give me my dignity
G
Darling, be weird


Bm
I don't run either way
D
I wouldn't risk
Am
All your darkness

G    Bm    D    Am

Bm
Please
Tap to rate this tab
 
# A B C D E F G H I J K L M N O P Q R S T U V W X Y Z