Song name
# A B C D E F G H I J K L M N O P Q R S T U V W X Y Z

Lrb - Cholo Bodle Jai tab

                                "First Solo"

e------------------------------------------|--------------------------------|
B-----------5--6--6/8--8/10---8--6---------|----------/8--6--5--------------|
G----5--7----------------------------------|----5~~---------------7-----4~~\|
D-------------------------------------7~~--|--------------------------------|
A------------------------------------------|--------------------------------|
E------------------------------------------|--------------------------------|

                                "Second Solo"

e------------------------------------------|--------------------------------|
B-----------5--6--6/8--8/10---8--6---------|----------5--6--5~--------------|
G----5--7----------------------------------|--5--7------------7--5-7~-7b----|
D-------------------------------------7~~--|------------------------------4~|
A------------------------------------------|--------------------------------|
E------------------------------------------|--------------------------------|

this is the exact lead that was played by LRB when they first made this legendary
song...this is still played in many concerts....even i play this in our band
performance....hope everyone will like...n for more tabs n chords..mail me here-
ahasanul.haque@ymail.com......enjoy!!
Tap to rate this tab
# A B C D E F G H I J K L M N O P Q R S T U V W X Y Z