Song name
# A B C D E F G H I J K L M N O P Q R S T U V W X Y Z

Lubeh - Davai Za tab

right a very cool song but sung in russian so good luck with the lyrics!
its sounds nice although!
listen to the song to get the timing right and just practice and itl come
the first part is designed for acoustic guitar
just play softly
ONE
e--------4--2------4-----2----------5---4------4----2-|
B-----2----------------3--------6---6---6----------2--|
G---2--2---2--2------2--------6---6---6---6------2--4-|
D-4--------------------------------------------4------|
A------------------2-----2---4------------------------|
E-----------------------------------------------------|
TWO
e--------4--2---4---2----------5---4-----4---2--]
B-----2------------3-------6---6---6--------2---]
G----2-2--2-------4------6---6---6---6-----2----]
D--4--------4----------------------------4---4--]
A---------------2---2---4-----------------------]
E-----------------------------------------------]

then the electric guitar part is played over the part TWO
its like this
e--------------------------------------------]
B--2-2----------------2-2--------------------]
G------44-2-2-1--1--------44-2-2-1--1--1-----]
D------------------4---------------------4-4-]
A--------------------------------------------]
E--------------------------------------------]
Tap to rate this tab
# A B C D E F G H I J K L M N O P Q R S T U V W X Y Z