Song name
# A B C D E F G H I J K L M N O P Q R S T U V W X Y Z

Lucero - Drink Till Were Gone tab

Lucero
Drink Til Were Gone(lead)

This is the one way to do it

|--------------------------------------------------------------------------|
|----5--2-----2------------------------------------------------------------|
|----------4-----4--2--4--2-----2------------------------------------------|
|----------------------------4------4---2----------------------------------|
|--------------------------------------------------------------------------|
|--------------------------------------------------------------------------|

And this is it just moved up a string. Still sounds good.

|--------------------------------------------------------------------------|
|--------------------------------------------------------------------------|
|---9--6----6--------------------------------------------------------------|
|---------9---9--6--9--6-----6---------------------------------------------|
|-------------------------9-----9--6---------------------------------------|
|--------------------------------------------------------------------------|
Tap to rate this tab
 
# A B C D E F G H I J K L M N O P Q R S T U V W X Y Z